  0
SECTION
  2
HEADER
  9
$ACADVER
  1
AC1009
  9
$INSBASE
 10
0.0
 20
0.0
 30
0.0
  9
$EXTMIN
 10
3859.8384346694552
 20
-42.338485499505623
 30
-17.468410956456179
  9
$EXTMAX
 10
6330.3853530176839
 20
838.03457860168135
 30
875.80052052414396
  9
$LIMMIN
 10
3369.449666479999
 20
-1319.2986675100001
  9
$LIMMAX
 10
6803.7430786000004
 20
2114.9947446199999
  9
$ORTHOMODE
 70
     0
  9
$REGENMODE
 70
     1
  9
$FILLMODE
 70
     1
  9
$QTEXTMODE
 70
     0
  9
$MIRRTEXT
 70
     1
  9
$DRAGMODE
 70
     2
  9
$LTSCALE
 40
1.0
  9
$OSMODE
 70
    33
  9
$ATTMODE
 70
     1
  9
$TEXTSIZE
 40
0.2
  9
$TRACEWID
 40
0.05
  9
$TEXTSTYLE
  7
STANDARD
  9
$CLAYER
  8
41
  9
$CELTYPE
  6
BYLAYER
  9
$CECOLOR
 62
   256
  9
$DIMSCALE
 40
1.0
  9
$DIMASZ
 40
1.0
  9
$DIMEXO
 40
0.0625
  9
$DIMDLI
 40
0.38
  9
$DIMRND
 40
0.0
  9
$DIMDLE
 40
0.0
  9
$DIMEXE
 40
0.18
  9
$DIMTP
 40
0.0
  9
$DIMTM
 40
0.0
  9
$DIMTXT
 40
3.0
  9
$DIMCEN
 40
0.09
  9
$DIMTSZ
 40
0.0
  9
$DIMTOL
 70
     0
  9
$DIMLIM
 70
     0
  9
$DIMTIH
 70
     1
  9
$DIMTOH
 70
     1
  9
$DIMSE1
 70
     0
  9
$DIMSE2
 70
     0
  9
$DIMTAD
 70
     0
  9
$DIMZIN
 70
     0
  9
$DIMBLK
  1

  9
$DIMASO
 70
     1
  9
$DIMSHO
 70
     0
  9
$DIMPOST
  1
        
  9
$DIMAPOST
  1
        
  9
$DIMALT
 70
     0
  9
$DIMALTD
 70
     4
  9
$DIMALTF
 40
25.399999999999999
  9
$DIMLFAC
 40
1.0
  9
$DIMTOFL
 70
     0
  9
$DIMTVP
 40
0.0
  9
$DIMTIX
 70
     0
  9
$DIMSOXD
 70
     0
  9
$DIMSAH
 70
     0
  9
$DIMBLK1
  1

  9
$DIMBLK2
  1

  9
$DIMSTYLE
  2
STANDARD
  9
$DIMCLRD
 70
     0
  9
$DIMCLRE
 70
     0
  9
$DIMCLRT
 70
     0
  9
$DIMTFAC
 40
1.0
  9
$DIMGAP
 40
0.09
  9
$LUNITS
 70
     2
  9
$LUPREC
 70
     4
  9
$SKETCHINC
 40
0.1
  9
$FILLETRAD
 40
0.0
  9
$AUNITS
 70
     1
  9
$AUPREC
 70
     4
  9
$MENU
  1
        
  9
$ELEVATION
 40
0.0
  9
$PELEVATION
 40
0.0
  9
$THICKNESS
 40
0.0
  9
$LIMCHECK
 70
     0
  9
$BLIPMODE
 70
     0
  9
$CHAMFERA
 40
0.0
  9
$CHAMFERB
 40
0.0
  9
$SKPOLY
 70
     0
  9
$TDCREATE
 40
2453130.1071915971
  9
$TDUPDATE
 40
2453130.1700504972
  9
$TDINDWG
 40
0.0146385185
  9
$TDUSRTIMER
 40
0.014632037
  9
$USRTIMER
 70
     1
  9
$ANGBASE
 50
0.0
  9
$ANGDIR
 70
     0
  9
$PDMODE
 70
     0
  9
$PDSIZE
 40
0.0
  9
$PLINEWID
 40
0.0
  9
$COORDS
 70
     2
  9
$SPLFRAME
 70
     0
  9
$SPLINETYPE
 70
     6
  9
$SPLINESEGS
 70
     8
  9
$ATTDIA
 70
     0
  9
$ATTREQ
 70
     1
  9
$HANDLING
 70
 10241
  9
$HANDSEED
  5
106
  9
$SURFTAB1
 70
     6
  9
$SURFTAB2
 70
     6
  9
$SURFTYPE
 70
     6
  9
$SURFU
 70
     6
  9
$SURFV
 70
     6
  9
$UCSNAME
  2

  9
$UCSORG
 10
0.0
 20
0.0
 30
0.0
  9
$UCSXDIR
 10
1.0
 20
0.0
 30
0.0
  9
$UCSYDIR
 10
0.0
 20
1.0
 30
0.0
  9
$PUCSNAME
  2

  9
$PUCSORG
 10
0.0
 20
0.0
 30
0.0
  9
$PUCSXDIR
 10
1.0
 20
0.0
 30
0.0
  9
$PUCSYDIR
 10
0.0
 20
1.0
 30
0.0
  9
$USERI1
 70
     0
  9
$USERI2
 70
     0
  9
$USERI3
 70
     0
  9
$USERI4
 70
     0
  9
$USERI5
 70
     0
  9
$USERR1
 40
0.0
  9
$USERR2
 40
0.0
  9
$USERR3
 40
0.0
  9
$USERR4
 40
0.0
  9
$USERR5
 40
0.0
  9
$WORLDVIEW
 70
     1
  9
$SHADEDGE
 70
     3
  9
$SHADEDIF
 70
    70
  9
$TILEMODE
 70
     1
  9
$MAXACTVP
 70
    64
  9
$PLIMCHECK
 70
     0
  9
$PEXTMIN
 10
1.0000000000000000E+020
 20
1.0000000000000000E+020
 30
1.0000000000000000E+020
  9
$PEXTMAX
 10
-1.0000000000000000E+020
 20
-1.0000000000000000E+020
 30
-1.0000000000000000E+020
  9
$PLIMMIN
 10
0.0
 20
0.0
  9
$PLIMMAX
 10
12.0
 20
9.0
  9
$UNITMODE
 70
     0
  9
$VISRETAIN
 70
     1
  9
$PLINEGEN
 70
     0
  9
$PSLTSCALE
 70
     1
  0
ENDSEC
  0
SECTION
  2
TABLES
  0
TABLE
  2
VPORT
 70
     2
  0
VPORT
  2
*ACTIVE
 70
     0
 10
0.0
 20
0.0
 11
1.0
 21
1.0
 12
5086.5963725399997
 22
397.8480385549999
 13
0.0
 23
0.0
 14
1.0
 24
1.0
 15
0.0
 25
0.0
 16
0.0
 26
0.0
 36
1.0
 17
0.0
 27
0.0
 37
0.0
 40
3470.9584663520282
 41
1.623885918003565
 42
50.0
 43
0.0
 44
0.0
 50
0.0
 51
0.0
 71
     0
 72
   100
 73
     1
 74
     1
 75
     0
 76
     0
 77
     0
 78
     0
  0
ENDTAB
  0
TABLE
  2
LTYPE
 70
     6
  0
LTYPE
  2
CONTINUOUS
 70
     0
  3
Solid line
 72
    65
 73
     0
 40
0.0
  0
LTYPE
  2
DOT
 70
     0
  3
Dot line
 72
    65
 73
     2
 40
1.0
 49
0.0
 49
-1.0
  0
LTYPE
  2
HIDDEN
 70
     0
  3
Hidden line
 72
    65
 73
     2
 40
1.5
 49
1.0
 49
-0.5
  0
LTYPE
  2
DASHED
 70
     0
  3
Dashed line
 72
    65
 73
     2
 40
3.0
 49
2.0
 49
-1.0
  0
LTYPE
  2
CENTER
 70
     0
  3
Center line
 72
    65
 73
     4
 40
8.0
 49
5.0
 49
-1.0
 49
1.0
 49
-1.0
  0
LTYPE
  2
PHANTOM
 70
     0
  3
Phantom line
 72
    65
 73
     6
 40
10.0
 49
5.0
 49
-1.0
 49
1.0
 49
-1.0
 49
1.0
 49
-1.0
  0
ENDTAB
  0
TABLE
  2
LAYER
 70
    10
  0
LAYER
  2
0
 70
     0
 62
     5
  6
CONTINUOUS
  0
LAYER
  2
41
 70
     0
 62
     7
  6
CONTINUOUS
  0
LAYER
  2
1
 70
     0
 62
     1
  6
CONTINUOUS
  0
LAYER
  2
2
 70
     0
 62
     7
  6
CONTINUOUS
  0
LAYER
  2
3
 70
     0
 62
     3
  6
CONTINUOUS
  0
LAYER
  2
4
 70
     0
 62
     6
  6
CONTINUOUS
  0
LAYER
  2
5
 70
     0
 62
     2
  6
CONTINUOUS
  0
LAYER
  2
6
 70
     0
 62
     4
  6
CONTINUOUS
  0
LAYER
  2
11
 70
     0
 62
     7
  6
CONTINUOUS
  0
LAYER
  2
21
 70
     0
 62
     7
  6
CONTINUOUS
  0
ENDTAB
  0
TABLE
  2
STYLE
 70
     2
  0
STYLE
  2
STANDARD
 70
     0
 40
0.0
 41
1.0
 50
0.0
 71
     0
 42
0.2
  3
TXT
  4
BIGFONT
  0
STYLE
  2
STANDARD1
 70
     4
 40
0.0
 41
1.0
 50
0.0
 71
     0
 42
0.2
  3
TXT
  4
BIGFONT
  0
ENDTAB
  0
TABLE
  2
VIEW
 70
     0
  0
ENDTAB
  0
TABLE
  2
UCS
 70
     0
  0
ENDTAB
  0
TABLE
  2
APPID
 70
     1
  0
APPID
  2
ACAD
 70
     0
  0
ENDTAB
  0
TABLE
  2
DIMSTYLE
 70
     1
  0
DIMSTYLE
  2
STANDARD
 70
     0
  3

  4

  5

  6

  7

 40
1.0
 41
0.18
 42
0.0625
 43
0.38
 44
0.18
 45
0.0
 46
0.0
 47
0.0
 48
0.0
140
0.18
141
0.09
142
0.0
143
25.399999999999999
144
1.0
145
0.0
146
1.0
147
0.09
 71
     0
 72
     0
 73
     1
 74
     1
 75
     0
 76
     0
 77
     0
 78
     0
170
     0
171
     2
172
     0
173
     0
174
     0
175
     0
176
     0
177
     0
178
     0
  0
ENDTAB
  0
ENDSEC
  0
SECTION
  2
BLOCKS
  0
BLOCK
  8
0
  2
$MODEL_SPACE
 70
     0
 10
0.0
 20
0.0
 30
0.0
  3
$MODEL_SPACE
  1

  0
ENDBLK
  5
A7
  8
0
  0
BLOCK
 67
     1
  8
0
  2
$PAPER_SPACE
 70
     0
 10
0.0
 20
0.0
 30
0.0
  3
$PAPER_SPACE
  1

  0
ENDBLK
  5
A3
 67
     1
  8
0
  0
ENDSEC
  0
SECTION
  2
ENTITIES
  0
LINE
  5
C2
  8
11
  6
CONTINUOUS
 62
     3
 10
3996.6496869900002
 20
807.84803855999985
 30
-17.442150000000002
 11
4611.3550274899999
 21
523.57103656000004
 31
-17.442150000000002
  0
LINE
  5
C3
  8
11
  6
CONTINUOUS
 62
     4
 10
4611.3550274899999
 20
272.12504054999999
 30
-17.442150000000002
 11
3996.6496869900002
 21
-12.151961439999999
 31
-17.442150000000002
  0
LINE
  5
C4
  8
11
  6
CONTINUOUS
 62
     3
 10
5696.33421679
 20
21.810907209999989
 30
-17.442150000000002
 11
5155.0615193200001
 21
272.12820488
 31
-17.442150000000002
  0
LINE
  5
C5
  8
11
  6
CONTINUOUS
 62
     4
 10
5155.0615193200001
 20
523.56787223000003
 30
-17.442150000000002
 11
5696.33421679
 21
773.88516990000005
 31
-17.442150000000002
  0
LINE
  5
C6
  8
11
  6
CONTINUOUS
 62
     4
 10
5538.5060019100001
 20
523.56787223000003
 30
182.5578499999998
 11
5696.33421679
 21
773.88516990000005
 31
-17.442150000000002
  0
LINE
  5
C7
  8
11
  6
CONTINUOUS
 62
     4
 10
5696.33421679
 20
21.810907209999989
 30
-17.442150000000002
 11
5538.5060019100001
 21
272.12820488
 31
182.5578499999998
  0
LINE
  5
C8
  8
11
  6
CONTINUOUS
 62
     4
 10
5155.0615193200001
 20
272.12820488
 30
-17.442150000000002
 11
5538.5060019100001
 21
272.12820488
 31
182.5578499999998
  0
LINE
  5
C9
  8
11
  6
CONTINUOUS
 62
     4
 10
5155.0615193200001
 20
523.56787223000003
 30
-17.442150000000002
 11
5538.5060019100001
 21
523.56787223000003
 31
182.5578499999998
  0
LINE
  5
CA
  8
11
  6
CONTINUOUS
 62
     4
 10
4611.3550274899999
 20
523.57103656000004
 30
-17.442150000000002
 11
4994.7995100799999
 21
523.57103656000004
 31
182.5578499999998
  0
LINE
  5
CB
  8
11
  6
CONTINUOUS
 62
     4
 10
4611.3550274899999
 20
272.12504054999999
 30
-17.442150000000002
 11
4994.7995100799999
 21
272.12504054999999
 31
182.5578499999998
  0
LINE
  5
CC
  8
11
  6
CONTINUOUS
 62
     4
 10
4991.5294198000001
 20
530.64210436999986
 30
188.82734038000001
 11
4009.80771873
 21
836.30026061000001
 31
21.510863499999989
  0
LINE
  5
CD
  8
11
  6
CONTINUOUS
 62
     4
 10
4991.5294198000001
 20
530.64210436999986
 30
188.82734038000001
 11
4994.7995100799999
 21
523.57103656000004
 31
182.5578499999998
  0
LINE
  5
CE
  8
11
  6
CONTINUOUS
 62
     3
 10
3996.6496869900002
 20
807.84803855999985
 30
-17.442150000000002
 11
4009.80771873
 21
836.30026061000001
 31
21.510863499999989
  0
LINE
  5
CF
  8
11
  6
CONTINUOUS
 62
     4
 10
3996.6496869900002
 20
-12.151961439999999
 30
-17.442150000000002
 11
4009.80771873
 21
-40.604183499999991
 31
21.510863499999989
  0
LINE
  5
D0
  8
11
  6
CONTINUOUS
 62
     4
 10
4991.5294198000001
 20
265.05397273999989
 30
188.82734038000001
 11
4009.80771873
 21
-40.604183499999991
 31
21.510863499999989
  0
LINE
  5
D1
  8
11
  6
CONTINUOUS
 62
     4
 10
4991.5294198000001
 20
265.05397273999989
 30
188.82734038000001
 11
4994.7995100799999
 21
272.12504054999999
 31
182.5578499999998
  0
LINE
  5
D2
  8
21
  6
CONTINUOUS
 62
     7
 10
4498.7465117800011
 20
397.84803856000002
 30
-17.442150000000002
 11
6148.6787438399997
 21
397.84803856000002
 31
843.14252755999985
  0
LINE
  5
D3
  8
21
  6
CONTINUOUS
 62
     7
 10
5267.6768774000002
 20
397.84803856000002
 30
-17.442150000000002
 11
6313.12973401
 21
397.84803856000002
 31
527.85340338000003
  0
LINE
  5
D4
  8
21
  6
CONTINUOUS
 62
     7
 10
4883.2116945899988
 20
220.04803856000001
 30
-17.442150000000002
 11
6230.9042389300002
 21
220.04803856000001
 31
685.49796547000005
  0
LINE
  5
D5
  8
21
  6
CONTINUOUS
 62
     7
 10
4883.2116945899988
 20
575.64803856000003
 30
-17.442150000000002
 11
6230.9042389300002
 21
575.64803856000003
 31
685.49796547000005
  0
LINE
  5
D6
  8
21
  6
CONTINUOUS
 62
     7
 10
5726.33421679
 20
-42.151961440000001
 30
-17.442150000000002
 11
3860.0630110699999
 21
-42.151961440000001
 31
-17.442150000000002
  0
LINE
  5
D7
  8
21
  6
CONTINUOUS
 62
     7
 10
5726.33421679
 20
-42.151961440000001
 30
-17.442150000000002
 11
5726.33421679
 21
837.84803855999974
 31
-17.442150000000002
  0
LINE
  5
D8
  8
21
  6
CONTINUOUS
 62
     7
 10
5726.33421679
 20
837.84803855999974
 30
-17.442150000000002
 11
3860.0630110699999
 21
837.84803855999974
 31
-17.442150000000002
  0
LINE
  5
D9
  8
21
  6
CONTINUOUS
 62
     7
 10
3860.0630110699999
 20
-42.151961440000001
 30
-17.442150000000002
 11
3860.0630110699999
 21
837.84803855999974
 31
-17.442150000000002
  0
ARC
  5
DA
  8
21
  6
CONTINUOUS
 62
     7
 10
397.84803856000002
 20
-2273.7579262999989
 30
5841.5836883499996
 40
177.80000000000001
210
0.8866398323519057
220
0.0
230
0.4624606012267255
 50
0.0
 51
90.0
  0
ARC
  5
DB
  8
21
  6
CONTINUOUS
 62
     7
 10
397.84803856000002
 20
-2273.7579262999989
 30
5841.5836883499996
 40
177.80000000000001
210
0.8866398323519057
220
0.0
230
0.4624606012267255
 50
90.010000000000005
 51
180.0
  0
ARC
  5
DC
  8
21
  6
CONTINUOUS
 62
     7
 10
397.84803856000002
 20
-2273.7579262999989
 30
5841.5836883499996
 40
177.80000000000001
210
0.8866398323519057
220
0.0
230
0.4624606012267255
 50
180.0
 51
270.0
  0
ARC
  5
DD
  8
21
  6
CONTINUOUS
 62
     7
 10
397.84803856000002
 20
-2273.7579262999989
 30
5841.5836883499996
 40
177.80000000000001
210
0.8866398323519057
220
0.0
230
0.4624606012267255
 50
270.0
 51
0.0
  0
ARC
  5
DE
  8
21
  6
CONTINUOUS
 62
     7
 10
4585.9588870600001
 20
398.26427200000001
 30
-17.442150000000002
 40
87.200433889999999
 50
180.27349072999991
 51
203.73800689000001
  0
ARC
  5
DF
  8
21
  6
CONTINUOUS
 62
     7
 10
4619.404028519999
 20
413.63024735999988
 30
-17.442150000000002
 40
124.00308961
 50
204.01636465999991
 51
222.52930221
  0
ARC
  5
E0
  8
21
  6
CONTINUOUS
 62
     7
 10
4675.9491785399978
 20
464.87598424999987
 30
-17.442150000000002
 40
200.31396469000001
 50
222.39828441
 51
235.8662156499999
  0
ARC
  5
E1
  8
21
  6
CONTINUOUS
 62
     7
 10
4744.7117490299979
 20
564.61705395999979
 30
-17.442150000000002
 40
321.45854945999992
 50
235.69699862999991
 51
245.49049289000001
  0
ARC
  5
E2
  8
21
  6
CONTINUOUS
 62
     7
 10
4806.1834112400002
 20
697.77317484000002
 30
-17.442150000000002
 40
468.11797625000003
 50
245.40560471000001
 51
253.03874558999999
  0
ARC
  5
E3
  8
21
  6
CONTINUOUS
 62
     7
 10
4851.9281944799995
 20
844.67760582999995
 30
-17.442150000000002
 40
621.97793971999988
 50
252.9559031899999
 51
259.26593669999988
  0
ARC
  5
E4
  8
21
  6
CONTINUOUS
 62
     7
 10
4876.2916704199979
 20
971.19485294000003
 30
-17.442150000000002
 40
750.81922726000005
 50
259.23745467999993
 51
264.79747954999999
  0
ARC
  5
E5
  8
21
  6
CONTINUOUS
 62
     7
 10
4882.8473302100001
 20
1036.7227618199991
 30
-17.442150000000002
 40
816.67184245999999
 50
264.75630969999992
 51
270.02556294999982
  0
ARC
  5
E6
  8
21
  6
CONTINUOUS
 62
     7
 10
4882.8473302100001
 20
-241.02668471999991
 30
-17.442150000000002
 40
816.67184245999999
 50
89.97443705000002
 51
95.243690299999997
  0
ARC
  5
E7
  8
21
  6
CONTINUOUS
 62
     7
 10
4876.2916704099998
 20
-175.49877581999991
 30
-17.442150000000002
 40
750.81922725000004
 50
95.202520449999994
 51
100.7625453199999
  0
ARC
  5
E8
  8
21
  6
CONTINUOUS
 62
     7
 10
4851.9281944699997
 20
-48.981528689999998
 30
-17.442150000000002
 40
621.97793967999985
 50
100.7340632999999
 51
107.04409681
  0
ARC
  5
E9
  8
21
  6
CONTINUOUS
 62
     7
 10
4806.1834112500001
 20
97.922902230000005
 30
-17.442150000000002
 40
468.11797629
 50
106.9612544099999
 51
114.5943952899998
  0
ARC
  5
EA
  8
21
  6
CONTINUOUS
 62
     7
 10
4744.7117490299979
 20
231.07902312999991
 30
-17.442150000000002
 40
321.45854947999999
 50
114.50950711
 51
124.3030013699999
  0
ARC
  5
EB
  8
21
  6
CONTINUOUS
 62
     7
 10
4675.949178519998
 20
330.82009289000001
 30
-17.442150000000002
 40
200.31396465
 50
124.13378435
 51
137.60171559
  0
ARC
  5
EC
  8
21
  6
CONTINUOUS
 62
     7
 10
4619.4040285299989
 20
382.06582974999992
 30
-17.442150000000002
 40
124.00308961
 50
137.47069779
 51
155.98363534000001
  0
ARC
  5
ED
  8
21
  6
CONTINUOUS
 62
     7
 10
4585.9588870699999
 20
397.43180511000003
 30
-17.442150000000002
 40
87.200433899999979
 50
156.26199310999991
 51
179.72650927000001
  0
ARC
  5
EE
  8
21
  6
CONTINUOUS
 62
     7
 10
5180.2393571599996
 20
397.32918491999988
 30
-17.442150000000002
 40
87.439066780000005
 50
0.33998874
 51
23.742586769999988
  0
ARC
  5
EF
  8
21
  6
CONTINUOUS
 62
     7
 10
5147.7160522000004
 20
382.57197450000001
 30
-17.442150000000002
 40
123.15207950999999
 50
23.93492431999999
 51
42.573067430000002
  0
ARC
  5
F0
  8
21
  6
CONTINUOUS
 62
     7
 10
5089.376328450001
 20
329.53440911000001
 30
-17.442150000000002
 40
201.99625350999989
 50
42.456516980000004
 51
55.812953819999997
  0
ARC
  5
F1
  8
21
  6
CONTINUOUS
 62
     7
 10
5022.86273833
 20
233.03034382000001
 30
-17.442150000000002
 40
319.19988853000001
 50
55.67020505
 51
65.533577919999985
  0
ARC
  5
F2
  8
21
  6
CONTINUOUS
 62
     7
 10
4959.5415381299999
 20
96.331360680000003
 30
-17.442150000000002
 40
469.85007804000003
 50
65.40919624
 51
73.013195920000015
  0
ARC
  5
F3
  8
21
  6
CONTINUOUS
 62
     7
 10
4914.4397689999996
 20
-49.637637329999997
 30
-17.442150000000002
 40
622.62748965000003
 50
72.968195219999984
 51
79.272312880000001
  0
ARC
  5
F4
  8
21
  6
CONTINUOUS
 62
     7
 10
4890.6230028600003
 20
-171.39108193000001
 30
-17.442150000000002
 40
746.68669526999975
 50
79.215748099999999
 51
84.805980829999982
  0
ARC
  5
F5
  8
21
  6
CONTINUOUS
 62
     7
 10
4883.2970959300001
 20
-247.81870714999991
 30
-17.442150000000002
 40
823.46378804000005
 50
84.779753869999979
 51
90.00594214000003
  0
ARC
  5
F6
  8
21
  6
CONTINUOUS
 62
     7
 10
4883.2970959300001
 20
1043.5147842700001
 30
-17.442150000000002
 40
823.46378804999995
 50
269.99405786
 51
275.22024613000002
  0
ARC
  5
F7
  8
21
  6
CONTINUOUS
 62
     7
 10
4890.6230028600003
 20
967.08715901999994
 30
-17.442150000000002
 40
746.68669524999984
 50
275.19401916999999
 51
280.78425190000002
  0
ARC
  5
F8
  8
21
  6
CONTINUOUS
 62
     7
 10
4914.4397689999996
 20
845.33371445
 30
-17.442150000000002
 40
622.62748965000003
 50
280.72768711999998
 51
287.03180478000002
  0
ARC
  5
F9
  8
21
  6
CONTINUOUS
 62
     7
 10
4959.5415381199991
 20
699.36471644999995
 30
-17.442150000000002
 40
469.85007804999981
 50
286.98680408000001
 51
294.59080375999991
  0
ARC
  5
FA
  8
21
  6
CONTINUOUS
 62
     7
 10
5022.86273833
 20
562.66573329000005
 30
-17.442150000000002
 40
319.19988852
 50
294.46642207999992
 51
304.32979495000001
  0
ARC
  5
FB
  8
21
  6
CONTINUOUS
 62
     7
 10
5089.376328450001
 20
466.16166800000002
 30
-17.442150000000002
 40
201.99625349999991
 50
304.18704617999992
 51
317.54348301999988
  0
ARC
  5
FC
  8
21
  6
CONTINUOUS
 62
     7
 10
5147.7160521899978
 20
413.12410261000002
 30
-17.442150000000002
 40
123.15207950999999
 50
317.42693257000002
 51
336.06507568000001
  0
ARC
  5
FD
  8
21
  6
CONTINUOUS
 62
     7
 10
5180.2393571599996
 20
398.36689218999999
 30
-17.442150000000002
 40
87.439066789999998
 50
336.25741323
 51
359.66001125999998
  0
LINE
  5
FE
  8
41
  6
PHANTOM
 62
     6
 10
4883.2116945899988
 20
-42.151961440000001
 30
-17.442150000000002
 11
4883.2116945899988
 21
837.84803855999974
 31
-17.442150000000002
  0
LINE
  5
FF
  8
41
  6
PHANTOM
 62
     6
 10
5726.33421679
 20
397.84803856000002
 30
-17.442150000000002
 11
3860.0630110699999
 21
397.84803856000002
 31
-17.442150000000002
  0
ENDSEC
  0
EOF
