  0
SECTION
  2
HEADER
  9
$ACADVER
  1
AC1009
  9
$INSBASE
 10
0.0
 20
0.0
 30
0.0
  9
$EXTMIN
 10
9874.3867513000005
 20
9464.2647251300004
 30
0.0
  9
$EXTMAX
 10
10454.38677354
 20
9874.2647270599991
 30
0.0
  9
$LIMMIN
 10
9758.3867468499993
 20
9263.2647105199994
  9
$LIMMAX
 10
10570.38677798999
 20
10075.26474167
  9
$ORTHOMODE
 70
     0
  9
$REGENMODE
 70
     1
  9
$FILLMODE
 70
     1
  9
$QTEXTMODE
 70
     0
  9
$MIRRTEXT
 70
     1
  9
$DRAGMODE
 70
     2
  9
$LTSCALE
 40
1.0
  9
$OSMODE
 70
    37
  9
$ATTMODE
 70
     1
  9
$TEXTSIZE
 40
0.2
  9
$TRACEWID
 40
0.05
  9
$TEXTSTYLE
  7
STANDARD
  9
$CLAYER
  8
41
  9
$CELTYPE
  6
BYLAYER
  9
$CECOLOR
 62
   256
  9
$DIMSCALE
 40
1.0
  9
$DIMASZ
 40
1.0
  9
$DIMEXO
 40
0.0625
  9
$DIMDLI
 40
0.38
  9
$DIMRND
 40
0.0
  9
$DIMDLE
 40
0.0
  9
$DIMEXE
 40
0.18
  9
$DIMTP
 40
0.0
  9
$DIMTM
 40
0.0
  9
$DIMTXT
 40
3.0
  9
$DIMCEN
 40
0.09
  9
$DIMTSZ
 40
0.0
  9
$DIMTOL
 70
     0
  9
$DIMLIM
 70
     0
  9
$DIMTIH
 70
     1
  9
$DIMTOH
 70
     1
  9
$DIMSE1
 70
     0
  9
$DIMSE2
 70
     0
  9
$DIMTAD
 70
     0
  9
$DIMZIN
 70
     0
  9
$DIMBLK
  1

  9
$DIMASO
 70
     1
  9
$DIMSHO
 70
     0
  9
$DIMPOST
  1
        
  9
$DIMAPOST
  1
        
  9
$DIMALT
 70
     0
  9
$DIMALTD
 70
     4
  9
$DIMALTF
 40
25.399999999999999
  9
$DIMLFAC
 40
1.0
  9
$DIMTOFL
 70
     0
  9
$DIMTVP
 40
0.0
  9
$DIMTIX
 70
     0
  9
$DIMSOXD
 70
     0
  9
$DIMSAH
 70
     0
  9
$DIMBLK1
  1

  9
$DIMBLK2
  1

  9
$DIMSTYLE
  2
STANDARD
  9
$DIMCLRD
 70
     0
  9
$DIMCLRE
 70
     0
  9
$DIMCLRT
 70
     0
  9
$DIMTFAC
 40
1.0
  9
$DIMGAP
 40
0.09
  9
$LUNITS
 70
     2
  9
$LUPREC
 70
     4
  9
$SKETCHINC
 40
0.1
  9
$FILLETRAD
 40
0.0
  9
$AUNITS
 70
     1
  9
$AUPREC
 70
     4
  9
$MENU
  1
        
  9
$ELEVATION
 40
0.0
  9
$PELEVATION
 40
0.0
  9
$THICKNESS
 40
0.0
  9
$LIMCHECK
 70
     0
  9
$BLIPMODE
 70
     0
  9
$CHAMFERA
 40
0.0
  9
$CHAMFERB
 40
0.0
  9
$SKPOLY
 70
     0
  9
$TDCREATE
 40
2452194.7014198839
  9
$TDUPDATE
 40
2452194.7017568289
  9
$TDINDWG
 40
0.0003372917
  9
$TDUSRTIMER
 40
0.0003374074
  9
$USRTIMER
 70
     1
  9
$ANGBASE
 50
0.0
  9
$ANGDIR
 70
     0
  9
$PDMODE
 70
     0
  9
$PDSIZE
 40
0.0
  9
$PLINEWID
 40
0.0
  9
$COORDS
 70
     1
  9
$SPLFRAME
 70
     0
  9
$SPLINETYPE
 70
     6
  9
$SPLINESEGS
 70
     8
  9
$ATTDIA
 70
     0
  9
$ATTREQ
 70
     1
  9
$HANDLING
 70
  4097
  9
$HANDSEED
  5
EC
  9
$SURFTAB1
 70
     6
  9
$SURFTAB2
 70
     6
  9
$SURFTYPE
 70
     6
  9
$SURFU
 70
     6
  9
$SURFV
 70
     6
  9
$UCSNAME
  2

  9
$UCSORG
 10
0.0
 20
0.0
 30
0.0
  9
$UCSXDIR
 10
1.0
 20
0.0
 30
0.0
  9
$UCSYDIR
 10
0.0
 20
1.0
 30
0.0
  9
$PUCSNAME
  2

  9
$PUCSORG
 10
0.0
 20
0.0
 30
0.0
  9
$PUCSXDIR
 10
1.0
 20
0.0
 30
0.0
  9
$PUCSYDIR
 10
0.0
 20
1.0
 30
0.0
  9
$USERI1
 70
     0
  9
$USERI2
 70
     0
  9
$USERI3
 70
     0
  9
$USERI4
 70
     0
  9
$USERI5
 70
     0
  9
$USERR1
 40
0.0
  9
$USERR2
 40
0.0
  9
$USERR3
 40
0.0
  9
$USERR4
 40
0.0
  9
$USERR5
 40
0.0
  9
$WORLDVIEW
 70
     1
  9
$SHADEDGE
 70
     3
  9
$SHADEDIF
 70
    70
  9
$TILEMODE
 70
     1
  9
$MAXACTVP
 70
    64
  9
$PLIMCHECK
 70
     0
  9
$PEXTMIN
 10
1.0000000000000000E+020
 20
1.0000000000000000E+020
 30
1.0000000000000000E+020
  9
$PEXTMAX
 10
-1.0000000000000000E+020
 20
-1.0000000000000000E+020
 30
-1.0000000000000000E+020
  9
$PLIMMIN
 10
0.0
 20
0.0
  9
$PLIMMAX
 10
12.0
 20
9.0
  9
$UNITMODE
 70
     0
  9
$VISRETAIN
 70
     1
  9
$PLINEGEN
 70
     0
  9
$PSLTSCALE
 70
     1
  0
ENDSEC
  0
SECTION
  2
TABLES
  0
TABLE
  2
VPORT
 70
     2
  0
VPORT
  2
*ACTIVE
 70
     0
 10
0.0
 20
0.0
 11
1.0
 21
1.0
 12
10164.38676241999
 22
9669.2647260950016
 13
0.0
 23
0.0
 14
1.0
 24
1.0
 15
0.0
 25
0.0
 16
0.0
 26
0.0
 36
1.0
 17
0.0
 27
0.0
 37
0.0
 40
818.15154653750142
 41
1.571428571428571
 42
50.0
 43
0.0
 44
0.0
 50
0.0
 51
0.0
 71
     0
 72
   100
 73
     1
 74
     1
 75
     0
 76
     0
 77
     0
 78
     0
  0
ENDTAB
  0
TABLE
  2
LTYPE
 70
     6
  0
LTYPE
  2
CONTINUOUS
 70
     0
  3
Solid line
 72
    65
 73
     0
 40
0.0
  0
LTYPE
  2
DOT
 70
     0
  3
Dot line
 72
    65
 73
     2
 40
1.0
 49
0.0
 49
-1.0
  0
LTYPE
  2
HIDDEN
 70
     0
  3
Hidden line
 72
    65
 73
     2
 40
1.5
 49
1.0
 49
-0.5
  0
LTYPE
  2
DASHED
 70
     0
  3
Dashed line
 72
    65
 73
     2
 40
3.0
 49
2.0
 49
-1.0
  0
LTYPE
  2
CENTER
 70
     0
  3
Center line
 72
    65
 73
     4
 40
8.0
 49
5.0
 49
-1.0
 49
1.0
 49
-1.0
  0
LTYPE
  2
PHANTOM
 70
     0
  3
Phantom line
 72
    65
 73
     6
 40
10.0
 49
5.0
 49
-1.0
 49
1.0
 49
-1.0
 49
1.0
 49
-1.0
  0
ENDTAB
  0
TABLE
  2
LAYER
 70
     9
  0
LAYER
  2
0
 70
     0
 62
     5
  6
CONTINUOUS
  0
LAYER
  2
41
 70
     0
 62
     7
  6
CONTINUOUS
  0
LAYER
  2
1
 70
     0
 62
     1
  6
CONTINUOUS
  0
LAYER
  2
2
 70
     0
 62
     7
  6
CONTINUOUS
  0
LAYER
  2
3
 70
     0
 62
     3
  6
CONTINUOUS
  0
LAYER
  2
4
 70
     0
 62
     6
  6
CONTINUOUS
  0
LAYER
  2
5
 70
     0
 62
     2
  6
CONTINUOUS
  0
LAYER
  2
6
 70
     0
 62
     4
  6
CONTINUOUS
  0
LAYER
  2
M2-0
 70
     0
 62
     7
  6
CONTINUOUS
  0
ENDTAB
  0
TABLE
  2
STYLE
 70
     2
  0
STYLE
  2
STANDARD
 70
     0
 40
0.0
 41
1.0
 50
0.0
 71
     0
 42
0.2
  3
TXT
  4
BIGFONT
  0
STYLE
  2
STANDARD1
 70
     4
 40
0.0
 41
1.0
 50
0.0
 71
     0
 42
0.2
  3
TXT
  4
BIGFONT
  0
ENDTAB
  0
TABLE
  2
VIEW
 70
     0
  0
ENDTAB
  0
TABLE
  2
UCS
 70
     0
  0
ENDTAB
  0
TABLE
  2
APPID
 70
     1
  0
APPID
  2
ACAD
 70
     0
  0
ENDTAB
  0
TABLE
  2
DIMSTYLE
 70
     1
  0
DIMSTYLE
  2
STANDARD
 70
     0
  3

  4

  5

  6

  7

 40
1.0
 41
0.18
 42
0.0625
 43
0.38
 44
0.18
 45
0.0
 46
0.0
 47
0.0
 48
0.0
140
0.18
141
0.09
142
0.0
143
25.399999999999999
144
1.0
145
0.0
146
1.0
147
0.09
 71
     0
 72
     0
 73
     1
 74
     1
 75
     0
 76
     0
 77
     0
 78
     0
170
     0
171
     2
172
     0
173
     0
174
     0
175
     0
176
     0
177
     0
178
     0
  0
ENDTAB
  0
ENDSEC
  0
SECTION
  2
BLOCKS
  0
BLOCK
  8
0
  2
$MODEL_SPACE
 70
     0
 10
0.0
 20
0.0
 30
0.0
  3
$MODEL_SPACE
  1

  0
ENDBLK
  5
20
  8
0
  0
BLOCK
 67
     1
  8
0
  2
$PAPER_SPACE
 70
     0
 10
0.0
 20
0.0
 30
0.0
  3
$PAPER_SPACE
  1

  0
ENDBLK
  5
1C
 67
     1
  8
0
  0
ENDSEC
  0
SECTION
  2
ENTITIES
  0
LINE
  5
33
  8
M2-0
  6
CONTINUOUS
 62
     1
 10
10026.65687753999
 20
9624.9795203300018
 30
0.0
 11
10006.65687753999
 21
9644.97952033
 31
0.0
  0
LINE
  5
34
  8
M2-0
  6
CONTINUOUS
 62
     1
 10
10026.65687753999
 20
9624.9795203300018
 30
0.0
 11
10306.65687753999
 21
9624.9795203300018
 31
0.0
  0
LINE
  5
35
  8
M2-0
  6
CONTINUOUS
 62
     1
 10
10306.65687753999
 20
9714.97952033
 30
0.0
 11
10306.65687753999
 21
9624.9795203300018
 31
0.0
  0
LINE
  5
36
  8
M2-0
  6
CONTINUOUS
 62
     1
 10
10006.65687753999
 20
9714.97952033
 30
0.0
 11
10306.65687753999
 21
9714.97952033
 31
0.0
  0
LINE
  5
37
  8
M2-0
  6
CONTINUOUS
 62
     1
 10
10006.65687753999
 20
9714.97952033
 30
0.0
 11
10006.65687753999
 21
9644.97952033
 31
0.0
  0
TEXT
  5
38
  8
M2-0
  6
CONTINUOUS
 62
     2
 10
10002.879278619999
 20
9517.3069143600005
 30
0.0
 40
24.000000360000001
  1
PL 90X9X300
  0
LINE
  5
39
  8
M2-0
  6
CONTINUOUS
 62
     2
 10
10066.65687753999
 20
9694.9795203300018
 30
0.0
 11
10066.65687753999
 21
9634.97952033
 31
0.0
  0
LINE
  5
3A
  8
M2-0
  6
CONTINUOUS
 62
     2
 10
10141.65687753999
 20
9694.9795203300018
 30
0.0
 11
10141.65687753999
 21
9634.97952033
 31
0.0
  0
LINE
  5
3B
  8
M2-0
  6
CONTINUOUS
 62
     2
 10
10049.15425942
 20
9674.9795203299982
 30
0.0
 11
10049.15425942
 21
9654.9795205600003
 31
0.0
  0
LINE
  5
3C
  8
M2-0
  6
CONTINUOUS
 62
     2
 10
10084.159495530001
 20
9674.9795203299982
 30
0.0
 11
10084.159495530001
 21
9654.9795205600003
 31
0.0
  0
LINE
  5
3D
  8
M2-0
  6
CONTINUOUS
 62
     2
 10
10216.656877539999
 20
9694.9795203300018
 30
0.0
 11
10216.656877539999
 21
9634.97952033
 31
0.0
  0
LINE
  5
3E
  8
M2-0
  6
CONTINUOUS
 62
     2
 10
10016.656877539999
 20
9664.97952033
 30
0.0
 11
10251.260657770001
 21
9664.97952033
 31
0.0
  0
ARC
  5
3F
  8
M2-0
  6
CONTINUOUS
 62
     2
 10
10084.156877539999
 20
9664.97952033
 30
0.0
 40
15.0
 50
270.00999999999988
 51
90.0
  0
LINE
  5
40
  8
M2-0
  6
CONTINUOUS
 62
     2
 10
10049.15425942
 20
9649.9795205600021
 30
0.0
 11
10084.159495530001
 21
9649.9795205600021
 31
0.0
  0
ARC
  5
41
  8
M2-0
  6
CONTINUOUS
 62
     2
 10
10049.15687753999
 20
9664.97952033
 30
0.0
 40
15.0
 50
90.0
 51
269.98999952999998
  0
LINE
  5
42
  8
M2-0
  6
CONTINUOUS
 62
     2
 10
10049.15687753999
 20
9679.97952033
 30
0.0
 11
10084.156877539999
 21
9679.97952033
 31
0.0
  0
CIRCLE
  5
43
  8
M2-0
  6
CONTINUOUS
 62
     2
 10
10141.65687753999
 20
9664.97952033
 30
0.0
 40
12.25
  0
CIRCLE
  5
44
  8
M2-0
  6
CONTINUOUS
 62
     2
 10
10216.656877539999
 20
9664.97952033
 30
0.0
 40
12.25
  0
TEXT
  5
45
  8
M2-0
  6
CONTINUOUS
 62
   254
 10
10073.807119470001
 20
9598.8258841499992
 30
0.0
 40
12.000000180000001
  1
２－２４．５φ
  0
TEXT
  5
46
  8
M2-0
  6
CONTINUOUS
 62
   254
 10
10134.15687753999
 20
9821.8232286399998
 30
0.0
 40
12.000000180000001
  1
３００
  0
TEXT
  5
47
  8
M2-0
  6
CONTINUOUS
 62
   254
 10
10021.65687753999
 20
9790.6541704400006
 30
0.0
 40
12.000000180000001
  1
６０
  0
TEXT
  5
48
  8
M2-0
  6
CONTINUOUS
 62
   254
 10
10089.15687753999
 20
9790.6541704400006
 30
0.0
 40
12.000000180000001
  1
７５
  0
TEXT
  5
49
  8
M2-0
  6
CONTINUOUS
 62
   254
 10
10164.156877539999
 20
9790.6541704400006
 30
0.0
 40
12.000000180000001
  1
７５
  0
TEXT
  5
4A
  8
M2-0
  6
CONTINUOUS
 62
   254
 10
10246.65687753999
 20
9790.6541704400006
 30
0.0
 40
12.000000180000001
  1
９０
  0
TEXT
  5
4B
  8
M2-0
  6
CONTINUOUS
 62
   254
 10
10051.656877539999
 20
9754.3514599100017
 30
0.0
 40
12.000000180000001
  1
６５
  0
TEXT
  5
4C
  8
M2-0
  6
CONTINUOUS
 62
   254
 10
9955.1740004300027
 20
9649.9795204399998
 30
0.0
 40
12.000000180000001
  1
３０
 50
90.0
  0
TEXT
  5
4D
  8
M2-0
  6
CONTINUOUS
 62
   254
 10
10336.126444490001
 20
9629.9795203300018
 30
0.0
 40
12.000000180000001
  1
４０
 50
90.0
  0
TEXT
  5
4E
  8
M2-0
  6
CONTINUOUS
 62
   254
 10
10336.126444490001
 20
9674.9795203299982
 30
0.0
 40
12.000000180000001
  1
５０
 50
90.0
  0
TEXT
  5
4F
  8
M2-0
  6
CONTINUOUS
 62
   254
 10
9960.1236903800018
 20
9585.4466903100001
 30
0.0
 40
12.000000180000001
  1
Ｃ２０
 50
45.0
  0
TEXT
  5
50
  8
M2-0
  6
CONTINUOUS
 62
   254
 10
10372.071560799999
 20
9654.9795203300018
 30
0.0
 40
12.000000180000001
  1
９０
 50
90.0
  0
POLYLINE
  5
51
  8
M2-0
  6
CONTINUOUS
 62
   254
 66
     1
 10
0.0
 20
0.0
 30
0.0
 70
     8
  0
VERTEX
  5
52
  8
M2-0
  6
CONTINUOUS
 62
   254
 10
10375.08041796
 20
9632.2239640200005
 30
0.0
 70
    32
  0
VERTEX
  5
53
  8
M2-0
  6
CONTINUOUS
 62
   254
 10
10377.021560799991
 20
9624.9795203300018
 30
0.0
 70
    32
  0
VERTEX
  5
54
  8
M2-0
  6
CONTINUOUS
 62
   254
 10
10378.96270364
 20
9632.2239640200005
 30
0.0
 70
    32
  0
SEQEND
  5
55
  8
M2-0
 62
   254
  0
POLYLINE
  5
56
  8
M2-0
  6
CONTINUOUS
 62
   254
 66
     1
 10
0.0
 20
0.0
 30
0.0
 70
     8
  0
VERTEX
  5
57
  8
M2-0
  6
CONTINUOUS
 62
   254
 10
10378.96270364
 20
9707.7350766300005
 30
0.0
 70
    32
  0
VERTEX
  5
58
  8
M2-0
  6
CONTINUOUS
 62
   254
 10
10377.021560799991
 20
9714.97952033
 30
0.0
 70
    32
  0
VERTEX
  5
59
  8
M2-0
  6
CONTINUOUS
 62
   254
 10
10375.08041796
 20
9707.7350766300005
 30
0.0
 70
    32
  0
SEQEND
  5
5A
  8
M2-0
 62
   254
  0
LINE
  5
5B
  8
M2-0
  6
CONTINUOUS
 62
   254
 10
10377.021560799991
 20
9624.9795203300018
 30
0.0
 11
10377.021560799991
 21
9714.97952033
 31
0.0
  0
LINE
  5
5C
  8
M2-0
  6
CONTINUOUS
 62
   254
 10
10381.971560800001
 20
9714.97952033
 30
0.0
 11
10316.70687754
 21
9714.97952033
 31
0.0
  0
LINE
  5
5D
  8
M2-0
  6
CONTINUOUS
 62
   254
 10
10381.971560800001
 20
9624.9795203300018
 30
0.0
 11
10316.70687754
 21
9624.9795203300018
 31
0.0
  0
POLYLINE
  5
5E
  8
M2-0
  6
CONTINUOUS
 62
   254
 66
     1
 10
0.0
 20
0.0
 30
0.0
 70
     8
  0
VERTEX
  5
5F
  8
M2-0
  6
CONTINUOUS
 62
   254
 10
10343.01758732999
 20
9707.7350766300005
 30
0.0
 70
    32
  0
VERTEX
  5
60
  8
M2-0
  6
CONTINUOUS
 62
   254
 10
10341.07644449
 20
9714.97952033
 30
0.0
 70
    32
  0
VERTEX
  5
61
  8
M2-0
  6
CONTINUOUS
 62
   254
 10
10339.135301649991
 20
9707.7350766300005
 30
0.0
 70
    32
  0
SEQEND
  5
62
  8
M2-0
 62
   254
  0
POLYLINE
  5
63
  8
M2-0
  6
CONTINUOUS
 62
   254
 66
     1
 10
0.0
 20
0.0
 30
0.0
 70
     8
  0
VERTEX
  5
64
  8
M2-0
  6
CONTINUOUS
 62
   254
 10
10339.135301649991
 20
9672.2239640200005
 30
0.0
 70
    32
  0
VERTEX
  5
65
  8
M2-0
  6
CONTINUOUS
 62
   254
 10
10341.07644449
 20
9664.97952033
 30
0.0
 70
    32
  0
VERTEX
  5
66
  8
M2-0
  6
CONTINUOUS
 62
   254
 10
10343.01758732999
 20
9672.2239640200005
 30
0.0
 70
    32
  0
SEQEND
  5
67
  8
M2-0
 62
   254
  0
LINE
  5
68
  8
M2-0
  6
CONTINUOUS
 62
   254
 10
10341.07644449
 20
9714.97952033
 30
0.0
 11
10341.07644449
 21
9664.97952033
 31
0.0
  0
LINE
  5
69
  8
M2-0
  6
CONTINUOUS
 62
   254
 10
10346.02644449
 20
9714.97952033
 30
0.0
 11
10316.70687754
 21
9714.97952033
 31
0.0
  0
LINE
  5
6A
  8
M2-0
  6
CONTINUOUS
 62
   254
 10
10346.02644449
 20
9624.9795203300018
 30
0.0
 11
10316.70687754
 21
9624.9795203300018
 31
0.0
  0
LINE
  5
6B
  8
M2-0
  6
CONTINUOUS
 62
   254
 10
10346.02644449
 20
9664.97952033
 30
0.0
 11
10276.70687754
 21
9664.97952033
 31
0.0
  0
LINE
  5
6C
  8
M2-0
  6
CONTINUOUS
 62
   254
 10
10341.07644449
 20
9609.97952033
 30
0.0
 11
10341.07644449
 21
9679.97952033
 31
0.0
  0
POLYLINE
  5
6D
  8
M2-0
  6
CONTINUOUS
 62
   254
 66
     1
 10
0.0
 20
0.0
 30
0.0
 70
     8
  0
VERTEX
  5
6E
  8
M2-0
  6
CONTINUOUS
 62
   254
 10
10339.135301649991
 20
9672.2239640200005
 30
0.0
 70
    32
  0
VERTEX
  5
6F
  8
M2-0
  6
CONTINUOUS
 62
   254
 10
10341.07644449
 20
9664.97952033
 30
0.0
 70
    32
  0
VERTEX
  5
70
  8
M2-0
  6
CONTINUOUS
 62
   254
 10
10343.01758732999
 20
9672.2239640200005
 30
0.0
 70
    32
  0
SEQEND
  5
71
  8
M2-0
 62
   254
  0
POLYLINE
  5
72
  8
M2-0
  6
CONTINUOUS
 62
   254
 66
     1
 10
0.0
 20
0.0
 30
0.0
 70
     8
  0
VERTEX
  5
73
  8
M2-0
  6
CONTINUOUS
 62
   254
 10
10343.01758732999
 20
9617.7350766300005
 30
0.0
 70
    32
  0
VERTEX
  5
74
  8
M2-0
  6
CONTINUOUS
 62
   254
 10
10341.07644449
 20
9624.9795203300018
 30
0.0
 70
    32
  0
VERTEX
  5
75
  8
M2-0
  6
CONTINUOUS
 62
   254
 10
10339.135301649991
 20
9617.7350766300005
 30
0.0
 70
    32
  0
SEQEND
  5
76
  8
M2-0
 62
   254
  0
POLYLINE
  5
77
  8
M2-0
  6
CONTINUOUS
 62
   254
 66
     1
 10
0.0
 20
0.0
 30
0.0
 70
     8
  0
VERTEX
  5
78
  8
M2-0
  6
CONTINUOUS
 62
   254
 10
10299.41243384
 20
9814.9320857999992
 30
0.0
 70
    32
  0
VERTEX
  5
79
  8
M2-0
  6
CONTINUOUS
 62
   254
 10
10306.65687753999
 20
9816.8732286400027
 30
0.0
 70
    32
  0
VERTEX
  5
7A
  8
M2-0
  6
CONTINUOUS
 62
   254
 10
10299.41243384
 20
9818.8143714800026
 30
0.0
 70
    32
  0
SEQEND
  5
7B
  8
M2-0
 62
   254
  0
POLYLINE
  5
7C
  8
M2-0
  6
CONTINUOUS
 62
   254
 66
     1
 10
0.0
 20
0.0
 30
0.0
 70
     8
  0
VERTEX
  5
7D
  8
M2-0
  6
CONTINUOUS
 62
   254
 10
10013.90132123
 20
9818.8143714800026
 30
0.0
 70
    32
  0
VERTEX
  5
7E
  8
M2-0
  6
CONTINUOUS
 62
   254
 10
10006.65687753999
 20
9816.8732286400027
 30
0.0
 70
    32
  0
VERTEX
  5
7F
  8
M2-0
  6
CONTINUOUS
 62
   254
 10
10013.90132123
 20
9814.9320857999992
 30
0.0
 70
    32
  0
SEQEND
  5
80
  8
M2-0
 62
   254
  0
LINE
  5
81
  8
M2-0
  6
CONTINUOUS
 62
   254
 10
10306.65687753999
 20
9816.8732286400027
 30
0.0
 11
10006.65687753999
 21
9816.8732286400027
 31
0.0
  0
LINE
  5
82
  8
M2-0
  6
CONTINUOUS
 62
   254
 10
10006.65687753999
 20
9821.8232286399998
 30
0.0
 11
10006.65687753999
 21
9725.0295203299993
 31
0.0
  0
LINE
  5
83
  8
M2-0
  6
CONTINUOUS
 62
   254
 10
10306.65687753999
 20
9821.8232286399998
 30
0.0
 11
10306.65687753999
 21
9725.0295203299993
 31
0.0
  0
POLYLINE
  5
84
  8
M2-0
  6
CONTINUOUS
 62
   254
 66
     1
 10
0.0
 20
0.0
 30
0.0
 70
     8
  0
VERTEX
  5
85
  8
M2-0
  6
CONTINUOUS
 62
   254
 10
10299.41243384
 20
9783.7630276
 30
0.0
 70
    32
  0
VERTEX
  5
86
  8
M2-0
  6
CONTINUOUS
 62
   254
 10
10306.65687753999
 20
9785.7041704399999
 30
0.0
 70
    32
  0
VERTEX
  5
87
  8
M2-0
  6
CONTINUOUS
 62
   254
 10
10299.41243384
 20
9787.6453132799998
 30
0.0
 70
    32
  0
SEQEND
  5
88
  8
M2-0
 62
   254
  0
POLYLINE
  5
89
  8
M2-0
  6
CONTINUOUS
 62
   254
 66
     1
 10
0.0
 20
0.0
 30
0.0
 70
     8
  0
VERTEX
  5
8A
  8
M2-0
  6
CONTINUOUS
 62
   254
 10
10223.90132123
 20
9787.6453132799998
 30
0.0
 70
    32
  0
VERTEX
  5
8B
  8
M2-0
  6
CONTINUOUS
 62
   254
 10
10216.656877539999
 20
9785.7041704399999
 30
0.0
 70
    32
  0
VERTEX
  5
8C
  8
M2-0
  6
CONTINUOUS
 62
   254
 10
10223.90132123
 20
9783.7630276
 30
0.0
 70
    32
  0
SEQEND
  5
8D
  8
M2-0
 62
   254
  0
LINE
  5
8E
  8
M2-0
  6
CONTINUOUS
 62
   254
 10
10306.65687753999
 20
9785.7041704399999
 30
0.0
 11
10216.656877539999
 21
9785.7041704399999
 31
0.0
  0
LINE
  5
8F
  8
M2-0
  6
CONTINUOUS
 62
   254
 10
10306.65687753999
 20
9790.6541704400006
 30
0.0
 11
10306.65687753999
 21
9725.0295203299993
 31
0.0
  0
POLYLINE
  5
90
  8
M2-0
  6
CONTINUOUS
 62
   254
 66
     1
 10
0.0
 20
0.0
 30
0.0
 70
     8
  0
VERTEX
  5
91
  8
M2-0
  6
CONTINUOUS
 62
   254
 10
10209.412433839991
 20
9783.7630276
 30
0.0
 70
    32
  0
VERTEX
  5
92
  8
M2-0
  6
CONTINUOUS
 62
   254
 10
10216.656877539999
 20
9785.7041704399999
 30
0.0
 70
    32
  0
VERTEX
  5
93
  8
M2-0
  6
CONTINUOUS
 62
   254
 10
10209.412433839991
 20
9787.6453132799998
 30
0.0
 70
    32
  0
SEQEND
  5
94
  8
M2-0
 62
   254
  0
POLYLINE
  5
95
  8
M2-0
  6
CONTINUOUS
 62
   254
 66
     1
 10
0.0
 20
0.0
 30
0.0
 70
     8
  0
VERTEX
  5
96
  8
M2-0
  6
CONTINUOUS
 62
   254
 10
10148.901321229991
 20
9787.6453132799998
 30
0.0
 70
    32
  0
VERTEX
  5
97
  8
M2-0
  6
CONTINUOUS
 62
   254
 10
10141.65687753999
 20
9785.7041704399999
 30
0.0
 70
    32
  0
VERTEX
  5
98
  8
M2-0
  6
CONTINUOUS
 62
   254
 10
10148.901321229991
 20
9783.7630276
 30
0.0
 70
    32
  0
SEQEND
  5
99
  8
M2-0
 62
   254
  0
LINE
  5
9A
  8
M2-0
  6
CONTINUOUS
 62
   254
 10
10216.656877539999
 20
9785.7041704399999
 30
0.0
 11
10141.65687753999
 21
9785.7041704399999
 31
0.0
  0
LINE
  5
9B
  8
M2-0
  6
CONTINUOUS
 62
   254
 10
10141.65687753999
 20
9790.6541704400006
 30
0.0
 11
10141.65687753999
 21
9705.0295203299993
 31
0.0
  0
LINE
  5
9C
  8
M2-0
  6
CONTINUOUS
 62
   254
 10
10216.656877539999
 20
9790.6541704400006
 30
0.0
 11
10216.656877539999
 21
9725.0295203299993
 31
0.0
  0
POLYLINE
  5
9D
  8
M2-0
  6
CONTINUOUS
 62
   254
 66
     1
 10
0.0
 20
0.0
 30
0.0
 70
     8
  0
VERTEX
  5
9E
  8
M2-0
  6
CONTINUOUS
 62
   254
 10
10134.41243384
 20
9783.7630276
 30
0.0
 70
    32
  0
VERTEX
  5
9F
  8
M2-0
  6
CONTINUOUS
 62
   254
 10
10141.65687753999
 20
9785.7041704399999
 30
0.0
 70
    32
  0
VERTEX
  5
A0
  8
M2-0
  6
CONTINUOUS
 62
   254
 10
10134.41243384
 20
9787.6453132799998
 30
0.0
 70
    32
  0
SEQEND
  5
A1
  8
M2-0
 62
   254
  0
POLYLINE
  5
A2
  8
M2-0
  6
CONTINUOUS
 62
   254
 66
     1
 10
0.0
 20
0.0
 30
0.0
 70
     8
  0
VERTEX
  5
A3
  8
M2-0
  6
CONTINUOUS
 62
   254
 10
10073.90132123
 20
9787.6453132799998
 30
0.0
 70
    32
  0
VERTEX
  5
A4
  8
M2-0
  6
CONTINUOUS
 62
   254
 10
10066.65687753999
 20
9785.7041704399999
 30
0.0
 70
    32
  0
VERTEX
  5
A5
  8
M2-0
  6
CONTINUOUS
 62
   254
 10
10073.90132123
 20
9783.7630276
 30
0.0
 70
    32
  0
SEQEND
  5
A6
  8
M2-0
 62
   254
  0
LINE
  5
A7
  8
M2-0
  6
CONTINUOUS
 62
   254
 10
10141.65687753999
 20
9785.7041704399999
 30
0.0
 11
10066.65687753999
 21
9785.7041704399999
 31
0.0
  0
LINE
  5
A8
  8
M2-0
  6
CONTINUOUS
 62
   254
 10
10066.65687753999
 20
9790.6541704400006
 30
0.0
 11
10066.65687753999
 21
9705.0295203299993
 31
0.0
  0
LINE
  5
A9
  8
M2-0
  6
CONTINUOUS
 62
   254
 10
10141.65687753999
 20
9790.6541704400006
 30
0.0
 11
10141.65687753999
 21
9705.0295203299993
 31
0.0
  0
POLYLINE
  5
AA
  8
M2-0
  6
CONTINUOUS
 62
   254
 66
     1
 10
0.0
 20
0.0
 30
0.0
 70
     8
  0
VERTEX
  5
AB
  8
M2-0
  6
CONTINUOUS
 62
   254
 10
10059.41243384
 20
9783.7630276
 30
0.0
 70
    32
  0
VERTEX
  5
AC
  8
M2-0
  6
CONTINUOUS
 62
   254
 10
10066.65687753999
 20
9785.7041704399999
 30
0.0
 70
    32
  0
VERTEX
  5
AD
  8
M2-0
  6
CONTINUOUS
 62
   254
 10
10059.41243384
 20
9787.6453132799998
 30
0.0
 70
    32
  0
SEQEND
  5
AE
  8
M2-0
 62
   254
  0
POLYLINE
  5
AF
  8
M2-0
  6
CONTINUOUS
 62
   254
 66
     1
 10
0.0
 20
0.0
 30
0.0
 70
     8
  0
VERTEX
  5
B0
  8
M2-0
  6
CONTINUOUS
 62
   254
 10
10013.90132123
 20
9787.6453132799998
 30
0.0
 70
    32
  0
VERTEX
  5
B1
  8
M2-0
  6
CONTINUOUS
 62
   254
 10
10006.65687753999
 20
9785.7041704399999
 30
0.0
 70
    32
  0
VERTEX
  5
B2
  8
M2-0
  6
CONTINUOUS
 62
   254
 10
10013.90132123
 20
9783.7630276
 30
0.0
 70
    32
  0
SEQEND
  5
B3
  8
M2-0
 62
   254
  0
LINE
  5
B4
  8
M2-0
  6
CONTINUOUS
 62
   254
 10
10066.65687753999
 20
9785.7041704399999
 30
0.0
 11
10006.65687753999
 21
9785.7041704399999
 31
0.0
  0
LINE
  5
B5
  8
M2-0
  6
CONTINUOUS
 62
   254
 10
10006.65687753999
 20
9790.6541704400006
 30
0.0
 11
10006.65687753999
 21
9725.0295203299993
 31
0.0
  0
LINE
  5
B6
  8
M2-0
  6
CONTINUOUS
 62
   254
 10
10066.65687753999
 20
9790.6541704400006
 30
0.0
 11
10066.65687753999
 21
9705.0295203299993
 31
0.0
  0
LINE
  5
B7
  8
M2-0
  6
CONTINUOUS
 62
   254
 10
9955.1740004300027
 20
9649.9795205600021
 30
0.0
 11
10039.104259420001
 21
9649.9795205600021
 31
0.0
  0
LINE
  5
B8
  8
M2-0
  6
CONTINUOUS
 62
   254
 10
9955.1740004300027
 20
9679.97952033
 30
0.0
 11
10039.10687754
 21
9679.97952033
 31
0.0
  0
LINE
  5
B9
  8
M2-0
  6
CONTINUOUS
 62
   254
 10
9960.1240004299998
 20
9634.9795205600003
 30
0.0
 11
9960.1240004299998
 21
9694.9795203300018
 31
0.0
  0
POLYLINE
  5
BA
  8
M2-0
  6
CONTINUOUS
 62
   254
 66
     1
 10
0.0
 20
0.0
 30
0.0
 70
     8
  0
VERTEX
  5
BB
  8
M2-0
  6
CONTINUOUS
 62
   254
 10
9958.1828575900017
 20
9687.2239640200005
 30
0.0
 70
    32
  0
VERTEX
  5
BC
  8
M2-0
  6
CONTINUOUS
 62
   254
 10
9960.1240004299998
 20
9679.97952033
 30
0.0
 70
    32
  0
VERTEX
  5
BD
  8
M2-0
  6
CONTINUOUS
 62
   254
 10
9962.0651432700015
 20
9687.2239640200005
 30
0.0
 70
    32
  0
SEQEND
  5
BE
  8
M2-0
 62
   254
  0
POLYLINE
  5
BF
  8
M2-0
  6
CONTINUOUS
 62
   254
 66
     1
 10
0.0
 20
0.0
 30
0.0
 70
     8
  0
VERTEX
  5
C0
  8
M2-0
  6
CONTINUOUS
 62
   254
 10
9962.0651432700015
 20
9642.7350768600008
 30
0.0
 70
    32
  0
VERTEX
  5
C1
  8
M2-0
  6
CONTINUOUS
 62
   254
 10
9960.1240004299998
 20
9649.9795205600021
 30
0.0
 70
    32
  0
VERTEX
  5
C2
  8
M2-0
  6
CONTINUOUS
 62
   254
 10
9958.1828575900017
 20
9642.7350768600008
 30
0.0
 70
    32
  0
SEQEND
  5
C3
  8
M2-0
 62
   254
  0
POLYLINE
  5
C4
  8
M2-0
  6
CONTINUOUS
 62
   254
 66
     1
 10
0.0
 20
0.0
 30
0.0
 70
     8
  0
VERTEX
  5
C5
  8
M2-0
  6
CONTINUOUS
 62
   254
 10
10091.91243384
 20
9747.4603170699993
 30
0.0
 70
    32
  0
VERTEX
  5
C6
  8
M2-0
  6
CONTINUOUS
 62
   254
 10
10099.15687753999
 20
9749.4014599099992
 30
0.0
 70
    32
  0
VERTEX
  5
C7
  8
M2-0
  6
CONTINUOUS
 62
   254
 10
10091.91243384
 20
9751.3426027500027
 30
0.0
 70
    32
  0
SEQEND
  5
C8
  8
M2-0
 62
   254
  0
POLYLINE
  5
C9
  8
M2-0
  6
CONTINUOUS
 62
   254
 66
     1
 10
0.0
 20
0.0
 30
0.0
 70
     8
  0
VERTEX
  5
CA
  8
M2-0
  6
CONTINUOUS
 62
   254
 10
10041.401321229991
 20
9751.3426027500027
 30
0.0
 70
    32
  0
VERTEX
  5
CB
  8
M2-0
  6
CONTINUOUS
 62
   254
 10
10034.15687753999
 20
9749.4014599099992
 30
0.0
 70
    32
  0
VERTEX
  5
CC
  8
M2-0
  6
CONTINUOUS
 62
   254
 10
10041.401321229991
 20
9747.4603170699993
 30
0.0
 70
    32
  0
SEQEND
  5
CD
  8
M2-0
 62
   254
  0
LINE
  5
CE
  8
M2-0
  6
CONTINUOUS
 62
   254
 10
10099.15687753999
 20
9749.4014599099992
 30
0.0
 11
10034.15687753999
 21
9749.4014599099992
 31
0.0
  0
LINE
  5
CF
  8
M2-0
  6
CONTINUOUS
 62
   254
 10
10034.15687753999
 20
9754.3514599100017
 30
0.0
 11
10034.15687753999
 21
9675.0295203299993
 31
0.0
  0
LINE
  5
D0
  8
M2-0
  6
CONTINUOUS
 62
   254
 10
10099.15687753999
 20
9754.3514599100017
 30
0.0
 11
10099.15687753999
 21
9675.0295203299993
 31
0.0
  0
POLYLINE
  5
D1
  8
M2-0
  6
CONTINUOUS
 62
   254
 66
     1
 10
0.0
 20
0.0
 30
0.0
 70
     8
  0
VERTEX
  5
D2
  8
M2-0
  6
CONTINUOUS
 62
   254
 10
10012.90687753999
 20
9628.4843297999996
 30
0.0
 70
    32
  0
VERTEX
  5
D3
  8
M2-0
  6
CONTINUOUS
 62
   254
 10
10016.656877539999
 20
9634.97952033
 30
0.0
 70
    32
  0
VERTEX
  5
D4
  8
M2-0
  6
CONTINUOUS
 62
   254
 10
10010.161687010001
 20
9631.22952033
 30
0.0
 70
    32
  0
SEQEND
  5
D5
  8
M2-0
 62
   254
  0
LINE
  5
D6
  8
M2-0
  6
CONTINUOUS
 62
   254
 10
10016.656877539999
 20
9634.97952033
 30
0.0
 11
9958.3205680899991
 21
9576.64321088
 31
0.0
  0
LINE
  5
D7
  8
M2-0
  6
CONTINUOUS
 62
   254
 10
10186.307119470001
 20
9595.8258841499992
 30
0.0
 11
10066.307119470001
 21
9595.8258841499992
 31
0.0
  0
POLYLINE
  5
D8
  8
M2-0
  6
CONTINUOUS
 62
   254
 66
     1
 10
0.0
 20
0.0
 30
0.0
 70
     8
  0
VERTEX
  5
D9
  8
M2-0
  6
CONTINUOUS
 62
   254
 10
10210.60004431
 20
9646.3484671700007
 30
0.0
 70
    32
  0
VERTEX
  5
DA
  8
M2-0
  6
CONTINUOUS
 62
   254
 10
10211.73391026
 20
9653.7622616099998
 30
0.0
 70
    32
  0
VERTEX
  5
DB
  8
M2-0
  6
CONTINUOUS
 62
   254
 10
10207.04505631999
 20
9647.90866026
 30
0.0
 70
    32
  0
SEQEND
  5
DC
  8
M2-0
 62
   254
  0
LINE
  5
DD
  8
M2-0
  6
CONTINUOUS
 62
   254
 10
10186.307119470001
 20
9595.8258841499992
 30
0.0
 11
10211.73391026
 21
9653.7622616099998
 31
0.0
  0
LINE
  5
DE
  8
M2-0
  6
CONTINUOUS
 62
   254
 10
10216.656877539999
 20
9790.6541704400006
 30
0.0
 11
10216.656877539999
 21
9705.0295203299993
 31
0.0
  0
LINE
  5
DF
  8
M2-0
  6
CONTINUOUS
 62
   254
 10
10346.02644449
 20
9664.97952033
 30
0.0
 11
10259.96277486
 21
9664.97952033
 31
0.0
  0
LINE
  5
E0
  8
M2-0
  6
CONTINUOUS
 62
   254
 10
9884.3867516100017
 20
9474.2647251599992
 30
0.0
 11
9884.3867516100017
 21
9874.2647270599991
 31
0.0
  0
POINT
  5
E1
  8
M2-0
  6
CONTINUOUS
 62
   254
 10
9874.3867513000005
 20
9464.2647251300004
 30
0.0
  0
LINE
  5
E2
  8
M2-0
  6
CONTINUOUS
 62
   254
 10
9884.3867516100017
 20
9874.2647270599991
 30
0.0
 11
10454.38677354
 21
9874.2647270599991
 31
0.0
  0
LINE
  5
E3
  8
M2-0
  6
CONTINUOUS
 62
   254
 10
10454.38677354
 20
9474.2647251599992
 30
0.0
 11
10454.38677354
 21
9874.2647270599991
 31
0.0
  0
LINE
  5
E4
  8
M2-0
  6
CONTINUOUS
 62
   254
 10
9884.3867516100017
 20
9474.2647251599992
 30
0.0
 11
10454.38677354
 21
9474.2647251599992
 31
0.0
  0
ENDSEC
  0
EOF
