  0
SECTION
  2
HEADER
  9
$ACADVER
  1
AC1009
  9
$INSBASE
 10
0.0
 20
0.0
 30
0.0
  9
$EXTMIN
 10
9874.3867513000005
 20
8913.8442351899994
 30
0.0
  9
$EXTMAX
 10
10454.38677354
 20
9323.8442371300025
 30
0.0
  9
$LIMMIN
 10
9758.3867468499993
 20
8712.8442205899973
  9
$LIMMAX
 10
10570.38677798999
 20
9524.8442517300009
  9
$ORTHOMODE
 70
     0
  9
$REGENMODE
 70
     1
  9
$FILLMODE
 70
     1
  9
$QTEXTMODE
 70
     0
  9
$MIRRTEXT
 70
     1
  9
$DRAGMODE
 70
     2
  9
$LTSCALE
 40
1.0
  9
$OSMODE
 70
    37
  9
$ATTMODE
 70
     1
  9
$TEXTSIZE
 40
0.2
  9
$TRACEWID
 40
0.05
  9
$TEXTSTYLE
  7
STANDARD
  9
$CLAYER
  8
41
  9
$CELTYPE
  6
BYLAYER
  9
$CECOLOR
 62
   256
  9
$DIMSCALE
 40
1.0
  9
$DIMASZ
 40
1.0
  9
$DIMEXO
 40
0.0625
  9
$DIMDLI
 40
0.38
  9
$DIMRND
 40
0.0
  9
$DIMDLE
 40
0.0
  9
$DIMEXE
 40
0.18
  9
$DIMTP
 40
0.0
  9
$DIMTM
 40
0.0
  9
$DIMTXT
 40
3.0
  9
$DIMCEN
 40
0.09
  9
$DIMTSZ
 40
0.0
  9
$DIMTOL
 70
     0
  9
$DIMLIM
 70
     0
  9
$DIMTIH
 70
     1
  9
$DIMTOH
 70
     1
  9
$DIMSE1
 70
     0
  9
$DIMSE2
 70
     0
  9
$DIMTAD
 70
     0
  9
$DIMZIN
 70
     0
  9
$DIMBLK
  1

  9
$DIMASO
 70
     1
  9
$DIMSHO
 70
     0
  9
$DIMPOST
  1
        
  9
$DIMAPOST
  1
        
  9
$DIMALT
 70
     0
  9
$DIMALTD
 70
     4
  9
$DIMALTF
 40
25.399999999999999
  9
$DIMLFAC
 40
1.0
  9
$DIMTOFL
 70
     0
  9
$DIMTVP
 40
0.0
  9
$DIMTIX
 70
     0
  9
$DIMSOXD
 70
     0
  9
$DIMSAH
 70
     0
  9
$DIMBLK1
  1

  9
$DIMBLK2
  1

  9
$DIMSTYLE
  2
STANDARD
  9
$DIMCLRD
 70
     0
  9
$DIMCLRE
 70
     0
  9
$DIMCLRT
 70
     0
  9
$DIMTFAC
 40
1.0
  9
$DIMGAP
 40
0.09
  9
$LUNITS
 70
     2
  9
$LUPREC
 70
     4
  9
$SKETCHINC
 40
0.1
  9
$FILLETRAD
 40
0.0
  9
$AUNITS
 70
     1
  9
$AUPREC
 70
     4
  9
$MENU
  1
        
  9
$ELEVATION
 40
0.0
  9
$PELEVATION
 40
0.0
  9
$THICKNESS
 40
0.0
  9
$LIMCHECK
 70
     0
  9
$BLIPMODE
 70
     0
  9
$CHAMFERA
 40
0.0
  9
$CHAMFERB
 40
0.0
  9
$SKPOLY
 70
     0
  9
$TDCREATE
 40
2452194.7018547682
  9
$TDUPDATE
 40
2452194.7020306019
  9
$TDINDWG
 40
0.0001760648
  9
$TDUSRTIMER
 40
0.0001760648
  9
$USRTIMER
 70
     1
  9
$ANGBASE
 50
0.0
  9
$ANGDIR
 70
     0
  9
$PDMODE
 70
     0
  9
$PDSIZE
 40
0.0
  9
$PLINEWID
 40
0.0
  9
$COORDS
 70
     1
  9
$SPLFRAME
 70
     0
  9
$SPLINETYPE
 70
     6
  9
$SPLINESEGS
 70
     8
  9
$ATTDIA
 70
     0
  9
$ATTREQ
 70
     1
  9
$HANDLING
 70
  4097
  9
$HANDSEED
  5
B8
  9
$SURFTAB1
 70
     6
  9
$SURFTAB2
 70
     6
  9
$SURFTYPE
 70
     6
  9
$SURFU
 70
     6
  9
$SURFV
 70
     6
  9
$UCSNAME
  2

  9
$UCSORG
 10
0.0
 20
0.0
 30
0.0
  9
$UCSXDIR
 10
1.0
 20
0.0
 30
0.0
  9
$UCSYDIR
 10
0.0
 20
1.0
 30
0.0
  9
$PUCSNAME
  2

  9
$PUCSORG
 10
0.0
 20
0.0
 30
0.0
  9
$PUCSXDIR
 10
1.0
 20
0.0
 30
0.0
  9
$PUCSYDIR
 10
0.0
 20
1.0
 30
0.0
  9
$USERI1
 70
     0
  9
$USERI2
 70
     0
  9
$USERI3
 70
     0
  9
$USERI4
 70
     0
  9
$USERI5
 70
     0
  9
$USERR1
 40
0.0
  9
$USERR2
 40
0.0
  9
$USERR3
 40
0.0
  9
$USERR4
 40
0.0
  9
$USERR5
 40
0.0
  9
$WORLDVIEW
 70
     1
  9
$SHADEDGE
 70
     3
  9
$SHADEDIF
 70
    70
  9
$TILEMODE
 70
     1
  9
$MAXACTVP
 70
    64
  9
$PLIMCHECK
 70
     0
  9
$PEXTMIN
 10
1.0000000000000000E+020
 20
1.0000000000000000E+020
 30
1.0000000000000000E+020
  9
$PEXTMAX
 10
-1.0000000000000000E+020
 20
-1.0000000000000000E+020
 30
-1.0000000000000000E+020
  9
$PLIMMIN
 10
0.0
 20
0.0
  9
$PLIMMAX
 10
12.0
 20
9.0
  9
$UNITMODE
 70
     0
  9
$VISRETAIN
 70
     1
  9
$PLINEGEN
 70
     0
  9
$PSLTSCALE
 70
     1
  0
ENDSEC
  0
SECTION
  2
TABLES
  0
TABLE
  2
VPORT
 70
     2
  0
VPORT
  2
*ACTIVE
 70
     0
 10
0.0
 20
0.0
 11
1.0
 21
1.0
 12
10164.38676241999
 22
9118.8442361599991
 13
0.0
 23
0.0
 14
1.0
 24
1.0
 15
0.0
 25
0.0
 16
0.0
 26
0.0
 36
1.0
 17
0.0
 27
0.0
 37
0.0
 40
818.15154652742604
 41
1.571428571428571
 42
50.0
 43
0.0
 44
0.0
 50
0.0
 51
0.0
 71
     0
 72
   100
 73
     1
 74
     1
 75
     0
 76
     0
 77
     0
 78
     0
  0
ENDTAB
  0
TABLE
  2
LTYPE
 70
     6
  0
LTYPE
  2
CONTINUOUS
 70
     0
  3
Solid line
 72
    65
 73
     0
 40
0.0
  0
LTYPE
  2
DOT
 70
     0
  3
Dot line
 72
    65
 73
     2
 40
1.0
 49
0.0
 49
-1.0
  0
LTYPE
  2
HIDDEN
 70
     0
  3
Hidden line
 72
    65
 73
     2
 40
1.5
 49
1.0
 49
-0.5
  0
LTYPE
  2
DASHED
 70
     0
  3
Dashed line
 72
    65
 73
     2
 40
3.0
 49
2.0
 49
-1.0
  0
LTYPE
  2
CENTER
 70
     0
  3
Center line
 72
    65
 73
     4
 40
8.0
 49
5.0
 49
-1.0
 49
1.0
 49
-1.0
  0
LTYPE
  2
PHANTOM
 70
     0
  3
Phantom line
 72
    65
 73
     6
 40
10.0
 49
5.0
 49
-1.0
 49
1.0
 49
-1.0
 49
1.0
 49
-1.0
  0
ENDTAB
  0
TABLE
  2
LAYER
 70
     9
  0
LAYER
  2
0
 70
     0
 62
     5
  6
CONTINUOUS
  0
LAYER
  2
41
 70
     0
 62
     7
  6
CONTINUOUS
  0
LAYER
  2
1
 70
     0
 62
     1
  6
CONTINUOUS
  0
LAYER
  2
2
 70
     0
 62
     7
  6
CONTINUOUS
  0
LAYER
  2
3
 70
     0
 62
     3
  6
CONTINUOUS
  0
LAYER
  2
4
 70
     0
 62
     6
  6
CONTINUOUS
  0
LAYER
  2
5
 70
     0
 62
     2
  6
CONTINUOUS
  0
LAYER
  2
6
 70
     0
 62
     4
  6
CONTINUOUS
  0
LAYER
  2
M2-0
 70
     0
 62
     7
  6
CONTINUOUS
  0
ENDTAB
  0
TABLE
  2
STYLE
 70
     2
  0
STYLE
  2
STANDARD
 70
     0
 40
0.0
 41
1.0
 50
0.0
 71
     0
 42
0.2
  3
TXT
  4
BIGFONT
  0
STYLE
  2
STANDARD1
 70
     4
 40
0.0
 41
1.0
 50
0.0
 71
     0
 42
0.2
  3
TXT
  4
BIGFONT
  0
ENDTAB
  0
TABLE
  2
VIEW
 70
     0
  0
ENDTAB
  0
TABLE
  2
UCS
 70
     0
  0
ENDTAB
  0
TABLE
  2
APPID
 70
     1
  0
APPID
  2
ACAD
 70
     0
  0
ENDTAB
  0
TABLE
  2
DIMSTYLE
 70
     1
  0
DIMSTYLE
  2
STANDARD
 70
     0
  3

  4

  5

  6

  7

 40
1.0
 41
0.18
 42
0.0625
 43
0.38
 44
0.18
 45
0.0
 46
0.0
 47
0.0
 48
0.0
140
0.18
141
0.09
142
0.0
143
25.399999999999999
144
1.0
145
0.0
146
1.0
147
0.09
 71
     0
 72
     0
 73
     1
 74
     1
 75
     0
 76
     0
 77
     0
 78
     0
170
     0
171
     2
172
     0
173
     0
174
     0
175
     0
176
     0
177
     0
178
     0
  0
ENDTAB
  0
ENDSEC
  0
SECTION
  2
BLOCKS
  0
BLOCK
  8
0
  2
$MODEL_SPACE
 70
     0
 10
0.0
 20
0.0
 30
0.0
  3
$MODEL_SPACE
  1

  0
ENDBLK
  5
20
  8
0
  0
BLOCK
 67
     1
  8
0
  2
$PAPER_SPACE
 70
     0
 10
0.0
 20
0.0
 30
0.0
  3
$PAPER_SPACE
  1

  0
ENDBLK
  5
1C
 67
     1
  8
0
  0
ENDSEC
  0
SECTION
  2
ENTITIES
  0
LINE
  5
33
  8
M2-0
  6
CONTINUOUS
 62
     1
 10
10228.463661589991
 20
9105.8513524100017
 30
0.0
 11
10208.463661589991
 21
9085.8513524100017
 31
0.0
  0
LINE
  5
34
  8
M2-0
  6
CONTINUOUS
 62
     1
 10
10228.463661589991
 20
9105.8513524100017
 30
0.0
 11
10228.463661589991
 21
9185.8513524100017
 31
0.0
  0
LINE
  5
35
  8
M2-0
  6
CONTINUOUS
 62
     1
 10
10228.463661589991
 20
9185.8513524100017
 30
0.0
 11
10108.46366159
 21
9185.8513524100017
 31
0.0
  0
LINE
  5
36
  8
M2-0
  6
CONTINUOUS
 62
     1
 10
10108.46366159
 20
9105.8513524100017
 30
0.0
 11
10108.46366159
 21
9185.8513524100017
 31
0.0
  0
LINE
  5
37
  8
M2-0
  6
CONTINUOUS
 62
     1
 10
10128.46366159
 20
9085.8513524100017
 30
0.0
 11
10108.46366159
 21
9105.8513524100017
 31
0.0
  0
LINE
  5
38
  8
M2-0
  6
CONTINUOUS
 62
     1
 10
10208.463661589991
 20
9085.8513524100017
 30
0.0
 11
10128.46366159
 21
9085.8513524100017
 31
0.0
  0
CIRCLE
  5
39
  8
M2-0
  6
CONTINUOUS
 62
     6
 10
10168.46366159
 20
9135.8513524099999
 30
0.0
 40
30.0
  0
TEXT
  5
3A
  8
M2-0
  6
CONTINUOUS
 62
     2
 10
9992.6735743200006
 20
8967.2500424400005
 30
0.0
 40
24.000000360000001
  1
PL 100X9X120
  0
LINE
  5
3B
  8
M2-0
  6
CONTINUOUS
 62
     2
 10
10218.46366159
 20
9135.8513524099999
 30
0.0
 11
10118.46366159
 21
9135.8513524099999
 31
0.0
  0
LINE
  5
3C
  8
M2-0
  6
CONTINUOUS
 62
     2
 10
10168.46366159
 20
9095.8513524099999
 30
0.0
 11
10168.46366159
 21
9175.7690920099976
 31
0.0
  0
TEXT
  5
3D
  8
M2-0
  6
CONTINUOUS
 62
   254
 10
10243.177043589991
 20
9078.1383275400003
 30
0.0
 40
12.000000180000001
  1
Ｃ２０
 50
315.0
  0
TEXT
  5
3E
  8
M2-0
  6
CONTINUOUS
 62
   254
 10
10145.96366159
 20
9255.3344350200005
 30
0.0
 40
12.000000180000001
  1
１２０
  0
TEXT
  5
3F
  8
M2-0
  6
CONTINUOUS
 62
   254
 10
10123.463661589991
 20
9225.5893870300024
 30
0.0
 40
12.000000180000001
  1
６０
  0
TEXT
  5
40
  8
M2-0
  6
CONTINUOUS
 62
   254
 10
10183.463661589991
 20
9225.5893870300024
 30
0.0
 40
12.000000180000001
  1
６０
  0
TEXT
  5
41
  8
M2-0
  6
CONTINUOUS
 62
   254
 10
10039.613780469999
 20
9174.2699366600009
 30
0.0
 40
12.000000180000001
  1
６０φ
  0
TEXT
  5
42
  8
M2-0
  6
CONTINUOUS
 62
   254
 10
10061.930474430001
 20
9046.31852239
 30
0.0
 40
12.000000180000001
  1
Ｃ２０
 50
45.0
  0
TEXT
  5
43
  8
M2-0
  6
CONTINUOUS
 62
   254
 10
10260.838381940001
 20
9095.8513524099999
 30
0.0
 40
12.000000180000001
  1
５０
 50
90.0
  0
TEXT
  5
44
  8
M2-0
  6
CONTINUOUS
 62
   254
 10
10260.838381940001
 20
9145.8513524099999
 30
0.0
 40
12.000000180000001
  1
５０
 50
90.0
  0
TEXT
  5
45
  8
M2-0
  6
CONTINUOUS
 62
   254
 10
10295.57017429
 20
9113.3513524099999
 30
0.0
 40
12.000000180000001
  1
１００
 50
90.0
  0
POLYLINE
  5
46
  8
M2-0
  6
CONTINUOUS
 62
   254
 66
     1
 10
0.0
 20
0.0
 30
0.0
 70
     8
  0
VERTEX
  5
47
  8
M2-0
  6
CONTINUOUS
 62
   254
 10
10190.379975350001
 20
9129.42806905
 30
0.0
 70
    32
  0
VERTEX
  5
48
  8
M2-0
  6
CONTINUOUS
 62
   254
 10
10196.43135122999
 20
9124.9973975400007
 30
0.0
 70
    32
  0
VERTEX
  5
49
  8
M2-0
  6
CONTINUOUS
 62
   254
 10
10188.97537023999
 20
9125.8087836900013
 30
0.0
 70
    32
  0
SEQEND
  5
4A
  8
M2-0
 62
   254
  0
POLYLINE
  5
4B
  8
M2-0
  6
CONTINUOUS
 62
   254
 66
     1
 10
0.0
 20
0.0
 30
0.0
 70
     8
  0
VERTEX
  5
4C
  8
M2-0
  6
CONTINUOUS
 62
   254
 10
10146.54734782
 20
9142.2746357699998
 30
0.0
 70
    32
  0
VERTEX
  5
4D
  8
M2-0
  6
CONTINUOUS
 62
   254
 10
10140.49597195
 20
9146.7053072800009
 30
0.0
 70
    32
  0
VERTEX
  5
4E
  8
M2-0
  6
CONTINUOUS
 62
   254
 10
10147.95195294
 20
9145.8939211300003
 30
0.0
 70
    32
  0
SEQEND
  5
4F
  8
M2-0
 62
   254
  0
LINE
  5
50
  8
M2-0
  6
CONTINUOUS
 62
   254
 10
10196.43135122999
 20
9124.9973975400007
 30
0.0
 11
10082.2242228
 21
9169.3199366600002
 31
0.0
  0
LINE
  5
51
  8
M2-0
  6
CONTINUOUS
 62
   254
 10
10082.2242228
 20
9169.3199366600002
 30
0.0
 11
10037.2242228
 21
9169.3199366600002
 31
0.0
  0
POLYLINE
  5
52
  8
M2-0
  6
CONTINUOUS
 62
   254
 66
     1
 10
0.0
 20
0.0
 30
0.0
 70
     8
  0
VERTEX
  5
53
  8
M2-0
  6
CONTINUOUS
 62
   254
 10
10222.21366159
 20
9089.3561618799995
 30
0.0
 70
    32
  0
VERTEX
  5
54
  8
M2-0
  6
CONTINUOUS
 62
   254
 10
10218.46366159
 20
9095.8513524099999
 30
0.0
 70
    32
  0
VERTEX
  5
55
  8
M2-0
  6
CONTINUOUS
 62
   254
 10
10224.95885212
 20
9092.1013524100017
 30
0.0
 70
    32
  0
SEQEND
  5
56
  8
M2-0
 62
   254
  0
LINE
  5
57
  8
M2-0
  6
CONTINUOUS
 62
   254
 10
10218.46366159
 20
9095.8513524099999
 30
0.0
 11
10276.79997104
 21
9037.5150429599998
 31
0.0
  0
POLYLINE
  5
58
  8
M2-0
  6
CONTINUOUS
 62
   254
 66
     1
 10
0.0
 20
0.0
 30
0.0
 70
     8
  0
VERTEX
  5
59
  8
M2-0
  6
CONTINUOUS
 62
   254
 10
10111.96847105999
 20
9092.1013524100017
 30
0.0
 70
    32
  0
VERTEX
  5
5A
  8
M2-0
  6
CONTINUOUS
 62
   254
 10
10118.46366159
 20
9095.8513524099999
 30
0.0
 70
    32
  0
VERTEX
  5
5B
  8
M2-0
  6
CONTINUOUS
 62
   254
 10
10114.71366159
 20
9089.3561618799995
 30
0.0
 70
    32
  0
SEQEND
  5
5C
  8
M2-0
 62
   254
  0
LINE
  5
5D
  8
M2-0
  6
CONTINUOUS
 62
   254
 10
10118.46366159
 20
9095.8513524099999
 30
0.0
 11
10060.12735214
 21
9037.5150429599998
 31
0.0
  0
POLYLINE
  5
5E
  8
M2-0
  6
CONTINUOUS
 62
   254
 66
     1
 10
0.0
 20
0.0
 30
0.0
 70
     8
  0
VERTEX
  5
5F
  8
M2-0
  6
CONTINUOUS
 62
   254
 10
10115.70810528999
 20
9248.4432921800017
 30
0.0
 70
    32
  0
VERTEX
  5
60
  8
M2-0
  6
CONTINUOUS
 62
   254
 10
10108.46366159
 20
9250.3844350199997
 30
0.0
 70
    32
  0
VERTEX
  5
61
  8
M2-0
  6
CONTINUOUS
 62
   254
 10
10115.70810528999
 20
9252.3255778599996
 30
0.0
 70
    32
  0
SEQEND
  5
62
  8
M2-0
 62
   254
  0
POLYLINE
  5
63
  8
M2-0
  6
CONTINUOUS
 62
   254
 66
     1
 10
0.0
 20
0.0
 30
0.0
 70
     8
  0
VERTEX
  5
64
  8
M2-0
  6
CONTINUOUS
 62
   254
 10
10221.21921789
 20
9252.3255778599996
 30
0.0
 70
    32
  0
VERTEX
  5
65
  8
M2-0
  6
CONTINUOUS
 62
   254
 10
10228.463661589991
 20
9250.3844350199997
 30
0.0
 70
    32
  0
VERTEX
  5
66
  8
M2-0
  6
CONTINUOUS
 62
   254
 10
10221.21921789
 20
9248.4432921800017
 30
0.0
 70
    32
  0
SEQEND
  5
67
  8
M2-0
 62
   254
  0
LINE
  5
68
  8
M2-0
  6
CONTINUOUS
 62
   254
 10
10108.46366159
 20
9250.3844350199997
 30
0.0
 11
10228.463661589991
 21
9250.3844350199997
 31
0.0
  0
LINE
  5
69
  8
M2-0
  6
CONTINUOUS
 62
   254
 10
10228.463661589991
 20
9255.3344350200005
 30
0.0
 11
10228.463661589991
 21
9195.9013524099992
 31
0.0
  0
LINE
  5
6A
  8
M2-0
  6
CONTINUOUS
 62
   254
 10
10108.46366159
 20
9255.3344350200005
 30
0.0
 11
10108.46366159
 21
9195.9013524099992
 31
0.0
  0
POLYLINE
  5
6B
  8
M2-0
  6
CONTINUOUS
 62
   254
 66
     1
 10
0.0
 20
0.0
 30
0.0
 70
     8
  0
VERTEX
  5
6C
  8
M2-0
  6
CONTINUOUS
 62
   254
 10
10221.21921789
 20
9222.5805298699997
 30
0.0
 70
    32
  0
VERTEX
  5
6D
  8
M2-0
  6
CONTINUOUS
 62
   254
 10
10228.463661589991
 20
9220.6393870300017
 30
0.0
 70
    32
  0
VERTEX
  5
6E
  8
M2-0
  6
CONTINUOUS
 62
   254
 10
10221.21921789
 20
9218.6982441899981
 30
0.0
 70
    32
  0
SEQEND
  5
6F
  8
M2-0
 62
   254
  0
POLYLINE
  5
70
  8
M2-0
  6
CONTINUOUS
 62
   254
 66
     1
 10
0.0
 20
0.0
 30
0.0
 70
     8
  0
VERTEX
  5
71
  8
M2-0
  6
CONTINUOUS
 62
   254
 10
10175.708105289999
 20
9218.6982441899981
 30
0.0
 70
    32
  0
VERTEX
  5
72
  8
M2-0
  6
CONTINUOUS
 62
   254
 10
10168.46366159
 20
9220.6393870300017
 30
0.0
 70
    32
  0
VERTEX
  5
73
  8
M2-0
  6
CONTINUOUS
 62
   254
 10
10175.708105289999
 20
9222.5805298699997
 30
0.0
 70
    32
  0
SEQEND
  5
74
  8
M2-0
 62
   254
  0
LINE
  5
75
  8
M2-0
  6
CONTINUOUS
 62
   254
 10
10228.463661589991
 20
9220.6393870300017
 30
0.0
 11
10168.46366159
 21
9220.6393870300017
 31
0.0
  0
LINE
  5
76
  8
M2-0
  6
CONTINUOUS
 62
   254
 10
10168.46366159
 20
9225.5893870300024
 30
0.0
 11
10168.46366159
 21
9195.9013524099992
 31
0.0
  0
LINE
  5
77
  8
M2-0
  6
CONTINUOUS
 62
   254
 10
10228.463661589991
 20
9225.5893870300024
 30
0.0
 11
10228.463661589991
 21
9195.9013524099992
 31
0.0
  0
POLYLINE
  5
78
  8
M2-0
  6
CONTINUOUS
 62
   254
 66
     1
 10
0.0
 20
0.0
 30
0.0
 70
     8
  0
VERTEX
  5
79
  8
M2-0
  6
CONTINUOUS
 62
   254
 10
10161.21921789
 20
9222.5805298699997
 30
0.0
 70
    32
  0
VERTEX
  5
7A
  8
M2-0
  6
CONTINUOUS
 62
   254
 10
10168.46366159
 20
9220.6393870300017
 30
0.0
 70
    32
  0
VERTEX
  5
7B
  8
M2-0
  6
CONTINUOUS
 62
   254
 10
10161.21921789
 20
9218.6982441899981
 30
0.0
 70
    32
  0
SEQEND
  5
7C
  8
M2-0
 62
   254
  0
POLYLINE
  5
7D
  8
M2-0
  6
CONTINUOUS
 62
   254
 66
     1
 10
0.0
 20
0.0
 30
0.0
 70
     8
  0
VERTEX
  5
7E
  8
M2-0
  6
CONTINUOUS
 62
   254
 10
10115.70810528999
 20
9218.6982441899981
 30
0.0
 70
    32
  0
VERTEX
  5
7F
  8
M2-0
  6
CONTINUOUS
 62
   254
 10
10108.46366159
 20
9220.6393870300017
 30
0.0
 70
    32
  0
VERTEX
  5
80
  8
M2-0
  6
CONTINUOUS
 62
   254
 10
10115.70810528999
 20
9222.5805298699997
 30
0.0
 70
    32
  0
SEQEND
  5
81
  8
M2-0
 62
   254
  0
LINE
  5
82
  8
M2-0
  6
CONTINUOUS
 62
   254
 10
10168.46366159
 20
9220.6393870300017
 30
0.0
 11
10108.46366159
 21
9220.6393870300017
 31
0.0
  0
LINE
  5
83
  8
M2-0
  6
CONTINUOUS
 62
   254
 10
10108.46366159
 20
9225.5893870300024
 30
0.0
 11
10108.46366159
 21
9195.9013524099992
 31
0.0
  0
LINE
  5
84
  8
M2-0
  6
CONTINUOUS
 62
   254
 10
10168.46366159
 20
9225.5893870300024
 30
0.0
 11
10168.46366159
 21
9195.9013524099992
 31
0.0
  0
POLYLINE
  5
85
  8
M2-0
  6
CONTINUOUS
 62
   254
 66
     1
 10
0.0
 20
0.0
 30
0.0
 70
     8
  0
VERTEX
  5
86
  8
M2-0
  6
CONTINUOUS
 62
   254
 10
10267.72952477
 20
9093.0957961099994
 30
0.0
 70
    32
  0
VERTEX
  5
87
  8
M2-0
  6
CONTINUOUS
 62
   254
 10
10265.78838193999
 20
9085.8513524100017
 30
0.0
 70
    32
  0
VERTEX
  5
88
  8
M2-0
  6
CONTINUOUS
 62
   254
 10
10263.84723909999
 20
9093.0957961099994
 30
0.0
 70
    32
  0
SEQEND
  5
89
  8
M2-0
 62
   254
  0
POLYLINE
  5
8A
  8
M2-0
  6
CONTINUOUS
 62
   254
 66
     1
 10
0.0
 20
0.0
 30
0.0
 70
     8
  0
VERTEX
  5
8B
  8
M2-0
  6
CONTINUOUS
 62
   254
 10
10263.84723909999
 20
9128.6069087100004
 30
0.0
 70
    32
  0
VERTEX
  5
8C
  8
M2-0
  6
CONTINUOUS
 62
   254
 10
10265.78838193999
 20
9135.8513524099999
 30
0.0
 70
    32
  0
VERTEX
  5
8D
  8
M2-0
  6
CONTINUOUS
 62
   254
 10
10267.72952477
 20
9128.6069087100004
 30
0.0
 70
    32
  0
SEQEND
  5
8E
  8
M2-0
 62
   254
  0
LINE
  5
8F
  8
M2-0
  6
CONTINUOUS
 62
   254
 10
10265.78838193999
 20
9085.8513524100017
 30
0.0
 11
10265.78838193999
 21
9135.8513524099999
 31
0.0
  0
LINE
  5
90
  8
M2-0
  6
CONTINUOUS
 62
   254
 10
10270.73838194
 20
9135.8513524099999
 30
0.0
 11
10228.51366158999
 21
9135.8513524099999
 31
0.0
  0
LINE
  5
91
  8
M2-0
  6
CONTINUOUS
 62
   254
 10
10270.73838194
 20
9085.8513524100017
 30
0.0
 11
10218.513661589999
 21
9085.8513524100017
 31
0.0
  0
POLYLINE
  5
92
  8
M2-0
  6
CONTINUOUS
 62
   254
 66
     1
 10
0.0
 20
0.0
 30
0.0
 70
     8
  0
VERTEX
  5
93
  8
M2-0
  6
CONTINUOUS
 62
   254
 10
10267.72952477
 20
9143.0957961099994
 30
0.0
 70
    32
  0
VERTEX
  5
94
  8
M2-0
  6
CONTINUOUS
 62
   254
 10
10265.78838193999
 20
9135.8513524099999
 30
0.0
 70
    32
  0
VERTEX
  5
95
  8
M2-0
  6
CONTINUOUS
 62
   254
 10
10263.84723909999
 20
9143.0957961099994
 30
0.0
 70
    32
  0
SEQEND
  5
96
  8
M2-0
 62
   254
  0
POLYLINE
  5
97
  8
M2-0
  6
CONTINUOUS
 62
   254
 66
     1
 10
0.0
 20
0.0
 30
0.0
 70
     8
  0
VERTEX
  5
98
  8
M2-0
  6
CONTINUOUS
 62
   254
 10
10263.84723909999
 20
9178.6069087099986
 30
0.0
 70
    32
  0
VERTEX
  5
99
  8
M2-0
  6
CONTINUOUS
 62
   254
 10
10265.78838193999
 20
9185.8513524100017
 30
0.0
 70
    32
  0
VERTEX
  5
9A
  8
M2-0
  6
CONTINUOUS
 62
   254
 10
10267.72952477
 20
9178.6069087099986
 30
0.0
 70
    32
  0
SEQEND
  5
9B
  8
M2-0
 62
   254
  0
LINE
  5
9C
  8
M2-0
  6
CONTINUOUS
 62
   254
 10
10265.78838193999
 20
9135.8513524099999
 30
0.0
 11
10265.78838193999
 21
9185.8513524100017
 31
0.0
  0
LINE
  5
9D
  8
M2-0
  6
CONTINUOUS
 62
   254
 10
10270.73838194
 20
9185.8513524100017
 30
0.0
 11
10238.513661589999
 21
9185.8513524100017
 31
0.0
  0
LINE
  5
9E
  8
M2-0
  6
CONTINUOUS
 62
   254
 10
10270.73838194
 20
9135.8513524099999
 30
0.0
 11
10228.51366158999
 21
9135.8513524099999
 31
0.0
  0
POLYLINE
  5
9F
  8
M2-0
  6
CONTINUOUS
 62
   254
 66
     1
 10
0.0
 20
0.0
 30
0.0
 70
     8
  0
VERTEX
  5
A0
  8
M2-0
  6
CONTINUOUS
 62
   254
 10
10302.461317130001
 20
9093.0957961099994
 30
0.0
 70
    32
  0
VERTEX
  5
A1
  8
M2-0
  6
CONTINUOUS
 62
   254
 10
10300.520174290001
 20
9085.8513524100017
 30
0.0
 70
    32
  0
VERTEX
  5
A2
  8
M2-0
  6
CONTINUOUS
 62
   254
 10
10298.57903144999
 20
9093.0957961099994
 30
0.0
 70
    32
  0
SEQEND
  5
A3
  8
M2-0
 62
   254
  0
POLYLINE
  5
A4
  8
M2-0
  6
CONTINUOUS
 62
   254
 66
     1
 10
0.0
 20
0.0
 30
0.0
 70
     8
  0
VERTEX
  5
A5
  8
M2-0
  6
CONTINUOUS
 62
   254
 10
10298.57903144999
 20
9178.6069087099986
 30
0.0
 70
    32
  0
VERTEX
  5
A6
  8
M2-0
  6
CONTINUOUS
 62
   254
 10
10300.520174290001
 20
9185.8513524100017
 30
0.0
 70
    32
  0
VERTEX
  5
A7
  8
M2-0
  6
CONTINUOUS
 62
   254
 10
10302.461317130001
 20
9178.6069087099986
 30
0.0
 70
    32
  0
SEQEND
  5
A8
  8
M2-0
 62
   254
  0
LINE
  5
A9
  8
M2-0
  6
CONTINUOUS
 62
   254
 10
10300.520174290001
 20
9085.8513524100017
 30
0.0
 11
10300.520174290001
 21
9185.8513524100017
 31
0.0
  0
LINE
  5
AA
  8
M2-0
  6
CONTINUOUS
 62
   254
 10
10305.47017429
 20
9185.8513524100017
 30
0.0
 11
10238.513661589999
 21
9185.8513524100017
 31
0.0
  0
LINE
  5
AB
  8
M2-0
  6
CONTINUOUS
 62
   254
 10
10305.47017429
 20
9085.8513524100017
 30
0.0
 11
10218.513661589999
 21
9085.8513524100017
 31
0.0
  0
LINE
  5
AC
  8
M2-0
  6
CONTINUOUS
 62
   254
 10
9884.3867516100017
 20
8923.84423522
 30
0.0
 11
9884.3867516100017
 21
9323.8442371300025
 31
0.0
  0
POINT
  5
AD
  8
M2-0
  6
CONTINUOUS
 62
   254
 10
9874.3867513000005
 20
8913.8442351899994
 30
0.0
  0
LINE
  5
AE
  8
M2-0
  6
CONTINUOUS
 62
   254
 10
9884.3867516100017
 20
9323.8442371300025
 30
0.0
 11
10454.38677354
 21
9323.8442371300025
 31
0.0
  0
LINE
  5
AF
  8
M2-0
  6
CONTINUOUS
 62
   254
 10
10454.38677354
 20
8923.84423522
 30
0.0
 11
10454.38677354
 21
9323.8442371300025
 31
0.0
  0
LINE
  5
B0
  8
M2-0
  6
CONTINUOUS
 62
   254
 10
9884.3867516100017
 20
8923.84423522
 30
0.0
 11
10454.38677354
 21
8923.84423522
 31
0.0
  0
ENDSEC
  0
EOF
