  0
SECTION
  2
HEADER
  9
$ACADVER
  1
AC1009
  9
$INSBASE
 10
0.0
 20
0.0
 30
0.0
  9
$EXTMIN
 10
9789.5857893900011
 20
11224.842146340001
 30
0.0
  9
$EXTMAX
 10
10369.58581162999
 20
11634.842148269991
 30
0.0
  9
$LIMMIN
 10
9673.5857849400018
 20
11023.842131729991
  9
$LIMMAX
 10
10485.58581608
 20
11835.842162880001
  9
$ORTHOMODE
 70
     0
  9
$REGENMODE
 70
     1
  9
$FILLMODE
 70
     1
  9
$QTEXTMODE
 70
     0
  9
$MIRRTEXT
 70
     1
  9
$DRAGMODE
 70
     2
  9
$LTSCALE
 40
1.0
  9
$OSMODE
 70
    37
  9
$ATTMODE
 70
     1
  9
$TEXTSIZE
 40
0.2
  9
$TRACEWID
 40
0.05
  9
$TEXTSTYLE
  7
STANDARD
  9
$CLAYER
  8
41
  9
$CELTYPE
  6
BYLAYER
  9
$CECOLOR
 62
   256
  9
$DIMSCALE
 40
1.0
  9
$DIMASZ
 40
1.0
  9
$DIMEXO
 40
0.0625
  9
$DIMDLI
 40
0.38
  9
$DIMRND
 40
0.0
  9
$DIMDLE
 40
0.0
  9
$DIMEXE
 40
0.18
  9
$DIMTP
 40
0.0
  9
$DIMTM
 40
0.0
  9
$DIMTXT
 40
3.0
  9
$DIMCEN
 40
0.09
  9
$DIMTSZ
 40
0.0
  9
$DIMTOL
 70
     0
  9
$DIMLIM
 70
     0
  9
$DIMTIH
 70
     1
  9
$DIMTOH
 70
     1
  9
$DIMSE1
 70
     0
  9
$DIMSE2
 70
     0
  9
$DIMTAD
 70
     0
  9
$DIMZIN
 70
     0
  9
$DIMBLK
  1

  9
$DIMASO
 70
     1
  9
$DIMSHO
 70
     0
  9
$DIMPOST
  1
        
  9
$DIMAPOST
  1
        
  9
$DIMALT
 70
     0
  9
$DIMALTD
 70
     4
  9
$DIMALTF
 40
25.399999999999999
  9
$DIMLFAC
 40
1.0
  9
$DIMTOFL
 70
     0
  9
$DIMTVP
 40
0.0
  9
$DIMTIX
 70
     0
  9
$DIMSOXD
 70
     0
  9
$DIMSAH
 70
     0
  9
$DIMBLK1
  1

  9
$DIMBLK2
  1

  9
$DIMSTYLE
  2
STANDARD
  9
$DIMCLRD
 70
     0
  9
$DIMCLRE
 70
     0
  9
$DIMCLRT
 70
     0
  9
$DIMTFAC
 40
1.0
  9
$DIMGAP
 40
0.09
  9
$LUNITS
 70
     2
  9
$LUPREC
 70
     4
  9
$SKETCHINC
 40
0.1
  9
$FILLETRAD
 40
0.0
  9
$AUNITS
 70
     1
  9
$AUPREC
 70
     4
  9
$MENU
  1
        
  9
$ELEVATION
 40
0.0
  9
$PELEVATION
 40
0.0
  9
$THICKNESS
 40
0.0
  9
$LIMCHECK
 70
     0
  9
$BLIPMODE
 70
     0
  9
$CHAMFERA
 40
0.0
  9
$CHAMFERB
 40
0.0
  9
$SKPOLY
 70
     0
  9
$TDCREATE
 40
2452194.5790316309
  9
$TDUPDATE
 40
2452194.5792885879
  9
$TDINDWG
 40
0.0002571875
  9
$TDUSRTIMER
 40
0.0002571875
  9
$USRTIMER
 70
     1
  9
$ANGBASE
 50
0.0
  9
$ANGDIR
 70
     0
  9
$PDMODE
 70
     0
  9
$PDSIZE
 40
0.0
  9
$PLINEWID
 40
0.0
  9
$COORDS
 70
     1
  9
$SPLFRAME
 70
     0
  9
$SPLINETYPE
 70
     6
  9
$SPLINESEGS
 70
     8
  9
$ATTDIA
 70
     0
  9
$ATTREQ
 70
     1
  9
$HANDLING
 70
  4097
  9
$HANDSEED
  5
8B
  9
$SURFTAB1
 70
     6
  9
$SURFTAB2
 70
     6
  9
$SURFTYPE
 70
     6
  9
$SURFU
 70
     6
  9
$SURFV
 70
     6
  9
$UCSNAME
  2

  9
$UCSORG
 10
0.0
 20
0.0
 30
0.0
  9
$UCSXDIR
 10
1.0
 20
0.0
 30
0.0
  9
$UCSYDIR
 10
0.0
 20
1.0
 30
0.0
  9
$PUCSNAME
  2

  9
$PUCSORG
 10
0.0
 20
0.0
 30
0.0
  9
$PUCSXDIR
 10
1.0
 20
0.0
 30
0.0
  9
$PUCSYDIR
 10
0.0
 20
1.0
 30
0.0
  9
$USERI1
 70
     0
  9
$USERI2
 70
     0
  9
$USERI3
 70
     0
  9
$USERI4
 70
     0
  9
$USERI5
 70
     0
  9
$USERR1
 40
0.0
  9
$USERR2
 40
0.0
  9
$USERR3
 40
0.0
  9
$USERR4
 40
0.0
  9
$USERR5
 40
0.0
  9
$WORLDVIEW
 70
     1
  9
$SHADEDGE
 70
     3
  9
$SHADEDIF
 70
    70
  9
$TILEMODE
 70
     1
  9
$MAXACTVP
 70
    64
  9
$PLIMCHECK
 70
     0
  9
$PEXTMIN
 10
1.0000000000000000E+020
 20
1.0000000000000000E+020
 30
1.0000000000000000E+020
  9
$PEXTMAX
 10
-1.0000000000000000E+020
 20
-1.0000000000000000E+020
 30
-1.0000000000000000E+020
  9
$PLIMMIN
 10
0.0
 20
0.0
  9
$PLIMMAX
 10
12.0
 20
9.0
  9
$UNITMODE
 70
     0
  9
$VISRETAIN
 70
     1
  9
$PLINEGEN
 70
     0
  9
$PSLTSCALE
 70
     1
  0
ENDSEC
  0
SECTION
  2
TABLES
  0
TABLE
  2
VPORT
 70
     2
  0
VPORT
  2
*ACTIVE
 70
     0
 10
0.0
 20
0.0
 11
1.0
 21
1.0
 12
10079.58580051
 22
11429.842147305
 13
0.0
 23
0.0
 14
1.0
 24
1.0
 15
0.0
 25
0.0
 16
0.0
 26
0.0
 36
1.0
 17
0.0
 27
0.0
 37
0.0
 40
818.15154653750142
 41
1.571428571428571
 42
50.0
 43
0.0
 44
0.0
 50
0.0
 51
0.0
 71
     0
 72
   100
 73
     1
 74
     1
 75
     0
 76
     0
 77
     0
 78
     0
  0
ENDTAB
  0
TABLE
  2
LTYPE
 70
     6
  0
LTYPE
  2
CONTINUOUS
 70
     0
  3
Solid line
 72
    65
 73
     0
 40
0.0
  0
LTYPE
  2
DOT
 70
     0
  3
Dot line
 72
    65
 73
     2
 40
1.0
 49
0.0
 49
-1.0
  0
LTYPE
  2
HIDDEN
 70
     0
  3
Hidden line
 72
    65
 73
     2
 40
1.5
 49
1.0
 49
-0.5
  0
LTYPE
  2
DASHED
 70
     0
  3
Dashed line
 72
    65
 73
     2
 40
3.0
 49
2.0
 49
-1.0
  0
LTYPE
  2
CENTER
 70
     0
  3
Center line
 72
    65
 73
     4
 40
8.0
 49
5.0
 49
-1.0
 49
1.0
 49
-1.0
  0
LTYPE
  2
PHANTOM
 70
     0
  3
Phantom line
 72
    65
 73
     6
 40
10.0
 49
5.0
 49
-1.0
 49
1.0
 49
-1.0
 49
1.0
 49
-1.0
  0
ENDTAB
  0
TABLE
  2
LAYER
 70
     9
  0
LAYER
  2
0
 70
     0
 62
     5
  6
CONTINUOUS
  0
LAYER
  2
41
 70
     0
 62
     7
  6
CONTINUOUS
  0
LAYER
  2
1
 70
     0
 62
     1
  6
CONTINUOUS
  0
LAYER
  2
2
 70
     0
 62
     7
  6
CONTINUOUS
  0
LAYER
  2
3
 70
     0
 62
     3
  6
CONTINUOUS
  0
LAYER
  2
4
 70
     0
 62
     6
  6
CONTINUOUS
  0
LAYER
  2
5
 70
     0
 62
     2
  6
CONTINUOUS
  0
LAYER
  2
6
 70
     0
 62
     4
  6
CONTINUOUS
  0
LAYER
  2
M2-0
 70
     0
 62
     7
  6
CONTINUOUS
  0
ENDTAB
  0
TABLE
  2
STYLE
 70
     2
  0
STYLE
  2
STANDARD
 70
     0
 40
0.0
 41
1.0
 50
0.0
 71
     0
 42
0.2
  3
TXT
  4
BIGFONT
  0
STYLE
  2
STANDARD1
 70
     4
 40
0.0
 41
1.0
 50
0.0
 71
     0
 42
0.2
  3
TXT
  4
BIGFONT
  0
ENDTAB
  0
TABLE
  2
VIEW
 70
     0
  0
ENDTAB
  0
TABLE
  2
UCS
 70
     0
  0
ENDTAB
  0
TABLE
  2
APPID
 70
     1
  0
APPID
  2
ACAD
 70
     0
  0
ENDTAB
  0
TABLE
  2
DIMSTYLE
 70
     1
  0
DIMSTYLE
  2
STANDARD
 70
     0
  3

  4

  5

  6

  7

 40
1.0
 41
0.18
 42
0.0625
 43
0.38
 44
0.18
 45
0.0
 46
0.0
 47
0.0
 48
0.0
140
0.18
141
0.09
142
0.0
143
25.399999999999999
144
1.0
145
0.0
146
1.0
147
0.09
 71
     0
 72
     0
 73
     1
 74
     1
 75
     0
 76
     0
 77
     0
 78
     0
170
     0
171
     2
172
     0
173
     0
174
     0
175
     0
176
     0
177
     0
178
     0
  0
ENDTAB
  0
ENDSEC
  0
SECTION
  2
BLOCKS
  0
BLOCK
  8
0
  2
$MODEL_SPACE
 70
     0
 10
0.0
 20
0.0
 30
0.0
  3
$MODEL_SPACE
  1

  0
ENDBLK
  5
20
  8
0
  0
BLOCK
 67
     1
  8
0
  2
$PAPER_SPACE
 70
     0
 10
0.0
 20
0.0
 30
0.0
  3
$PAPER_SPACE
  1

  0
ENDBLK
  5
1C
 67
     1
  8
0
  0
ENDSEC
  0
SECTION
  2
ENTITIES
  0
LINE
  5
33
  8
M2-0
  6
CONTINUOUS
 62
     1
 10
10080.08580065999
 20
11388.15219590999
 30
0.0
 11
10089.085800659999
 21
11388.15219590999
 31
0.0
  0
LINE
  5
34
  8
M2-0
  6
CONTINUOUS
 62
     1
 10
10089.085800659999
 20
11388.15219590999
 30
0.0
 11
10089.085800659999
 21
11482.152195909999
 31
0.0
  0
ARC
  5
35
  8
M2-0
  6
CONTINUOUS
 62
     1
 10
10105.08580065999
 20
11482.152195909999
 30
0.0
 40
16.0
 50
90.0
 51
180.0
  0
LINE
  5
36
  8
M2-0
  6
CONTINUOUS
 62
     1
 10
10105.08580065999
 20
11498.15219590999
 30
0.0
 11
10173.085800659999
 21
11498.15219590999
 31
0.0
  0
LINE
  5
37
  8
M2-0
  6
CONTINUOUS
 62
     1
 10
10173.085800659999
 20
11498.15219590999
 30
0.0
 11
10173.085800659999
 21
11507.15219590999
 31
0.0
  0
LINE
  5
38
  8
M2-0
  6
CONTINUOUS
 62
     1
 10
9996.0858006599992
 20
11507.15219590999
 30
0.0
 11
10173.085800659999
 21
11507.15219590999
 31
0.0
  0
LINE
  5
39
  8
M2-0
  6
CONTINUOUS
 62
     1
 10
9996.0858006599992
 20
11498.15219590999
 30
0.0
 11
9996.0858006599992
 21
11507.15219590999
 31
0.0
  0
LINE
  5
3A
  8
M2-0
  6
CONTINUOUS
 62
     1
 10
9996.0858006599992
 20
11498.15219590999
 30
0.0
 11
10064.08580065999
 21
11498.15219590999
 31
0.0
  0
ARC
  5
3B
  8
M2-0
  6
CONTINUOUS
 62
     1
 10
10064.08580065999
 20
11482.152195909999
 30
0.0
 40
16.0
 50
0.0
 51
90.0
  0
LINE
  5
3C
  8
M2-0
  6
CONTINUOUS
 62
     1
 10
10080.08580065999
 20
11388.15219590999
 30
0.0
 11
10080.08580065999
 21
11482.152195909999
 31
0.0
  0
TEXT
  5
3D
  8
M2-0
  6
CONTINUOUS
 62
     2
 10
9882.3742033100007
 20
11264.95855017
 30
0.0
 40
24.000000360000001
  1
CT 119X177X9X9
  0
LINE
  5
3E
  8
M2-0
  6
PHANTOM
 62
   254
 10
10084.58580065999
 20
11388.15219590999
 30
0.0
 11
10084.58580065999
 21
11507.15219590999
 31
0.0
  0
TEXT
  5
3F
  8
M2-0
  6
CONTINUOUS
 62
   254
 10
10039.585800659999
 20
11588.87303586999
 30
0.0
 40
24.000000360000001
  1
１７７
  0
TEXT
  5
40
  8
M2-0
  6
CONTINUOUS
 62
   254
 10
9889.2735575600018
 20
11402.65219590999
 30
0.0
 40
24.000000360000001
  1
１１９
 50
90.0
  0
TEXT
  5
41
  8
M2-0
  6
CONTINUOUS
 62
   254
 10
9938.8465537800002
 20
11468.15219590999
 30
0.0
 40
24.000000360000001
  1
９
 50
90.0
  0
TEXT
  5
42
  8
M2-0
  6
CONTINUOUS
 62
   254
 10
10043.01525267999
 20
11327.20700647
 30
0.0
 40
24.000000360000001
  1
９
  0
TEXT
  5
43
  8
M2-0
  6
CONTINUOUS
 62
   254
 10
10140.438037309999
 20
11451.01641075
 30
0.0
 40
24.000000360000001
  1
Ｒ１６
  0
POLYLINE
  5
44
  8
M2-0
  6
CONTINUOUS
 62
   254
 66
     1
 10
0.0
 20
0.0
 30
0.0
 70
     8
  0
VERTEX
  5
45
  8
M2-0
  6
CONTINUOUS
 62
   254
 10
10010.57468806
 20
11582.85532155
 30
0.0
 70
    32
  0
VERTEX
  5
46
  8
M2-0
  6
CONTINUOUS
 62
   254
 10
9996.0858006599992
 20
11578.973035880001
 30
0.0
 70
    32
  0
VERTEX
  5
47
  8
M2-0
  6
CONTINUOUS
 62
   254
 10
10010.57468806
 20
11575.09075019999
 30
0.0
 70
    32
  0
SEQEND
  5
48
  8
M2-0
 62
   254
  0
POLYLINE
  5
49
  8
M2-0
  6
CONTINUOUS
 62
   254
 66
     1
 10
0.0
 20
0.0
 30
0.0
 70
     8
  0
VERTEX
  5
4A
  8
M2-0
  6
CONTINUOUS
 62
   254
 10
10158.59691326999
 20
11575.09075019999
 30
0.0
 70
    32
  0
VERTEX
  5
4B
  8
M2-0
  6
CONTINUOUS
 62
   254
 10
10173.085800659999
 20
11578.973035880001
 30
0.0
 70
    32
  0
VERTEX
  5
4C
  8
M2-0
  6
CONTINUOUS
 62
   254
 10
10158.59691326999
 20
11582.85532155
 30
0.0
 70
    32
  0
SEQEND
  5
4D
  8
M2-0
 62
   254
  0
LINE
  5
4E
  8
M2-0
  6
CONTINUOUS
 62
   254
 10
9996.0858006599992
 20
11578.973035880001
 30
0.0
 11
10173.085800659999
 21
11578.973035880001
 31
0.0
  0
LINE
  5
4F
  8
M2-0
  6
CONTINUOUS
 62
   254
 10
10173.085800659999
 20
11588.87303586999
 30
0.0
 11
10173.085800659999
 21
11527.25219591
 31
0.0
  0
LINE
  5
50
  8
M2-0
  6
CONTINUOUS
 62
   254
 10
9996.0858006599992
 20
11588.87303586999
 30
0.0
 11
9996.0858006599992
 21
11527.25219591
 31
0.0
  0
POLYLINE
  5
51
  8
M2-0
  6
CONTINUOUS
 62
   254
 66
     1
 10
0.0
 20
0.0
 30
0.0
 70
     8
  0
VERTEX
  5
52
  8
M2-0
  6
CONTINUOUS
 62
   254
 10
9903.0558432300004
 20
11492.66330851999
 30
0.0
 70
    32
  0
VERTEX
  5
53
  8
M2-0
  6
CONTINUOUS
 62
   254
 10
9899.1735575600014
 20
11507.15219590999
 30
0.0
 70
    32
  0
VERTEX
  5
54
  8
M2-0
  6
CONTINUOUS
 62
   254
 10
9895.2912718800017
 20
11492.66330851999
 30
0.0
 70
    32
  0
SEQEND
  5
55
  8
M2-0
 62
   254
  0
POLYLINE
  5
56
  8
M2-0
  6
CONTINUOUS
 62
   254
 66
     1
 10
0.0
 20
0.0
 30
0.0
 70
     8
  0
VERTEX
  5
57
  8
M2-0
  6
CONTINUOUS
 62
   254
 10
9895.2912718800017
 20
11402.64108331
 30
0.0
 70
    32
  0
VERTEX
  5
58
  8
M2-0
  6
CONTINUOUS
 62
   254
 10
9899.1735575600014
 20
11388.15219590999
 30
0.0
 70
    32
  0
VERTEX
  5
59
  8
M2-0
  6
CONTINUOUS
 62
   254
 10
9903.0558432300004
 20
11402.64108331
 30
0.0
 70
    32
  0
SEQEND
  5
5A
  8
M2-0
 62
   254
  0
LINE
  5
5B
  8
M2-0
  6
CONTINUOUS
 62
   254
 10
9899.1735575600014
 20
11507.15219590999
 30
0.0
 11
9899.1735575600014
 21
11388.15219590999
 31
0.0
  0
LINE
  5
5C
  8
M2-0
  6
CONTINUOUS
 62
   254
 10
9889.2735575600018
 20
11388.15219590999
 30
0.0
 11
10059.985800660001
 21
11388.15219590999
 31
0.0
  0
LINE
  5
5D
  8
M2-0
  6
CONTINUOUS
 62
   254
 10
9889.2735575600018
 20
11507.15219590999
 30
0.0
 11
9975.9858006600007
 21
11507.15219590999
 31
0.0
  0
LINE
  5
5E
  8
M2-0
  6
CONTINUOUS
 62
   254
 10
9938.8465537800002
 20
11498.15219590999
 30
0.0
 11
9975.9858006600007
 21
11498.15219590999
 31
0.0
  0
LINE
  5
5F
  8
M2-0
  6
CONTINUOUS
 62
   254
 10
9938.8465537800002
 20
11507.15219590999
 30
0.0
 11
9975.9858006600007
 21
11507.15219590999
 31
0.0
  0
POLYLINE
  5
60
  8
M2-0
  6
CONTINUOUS
 62
   254
 66
     1
 10
0.0
 20
0.0
 30
0.0
 70
     8
  0
VERTEX
  5
61
  8
M2-0
  6
CONTINUOUS
 62
   254
 10
9944.8642681000001
 20
11521.64108331
 30
0.0
 70
    32
  0
VERTEX
  5
62
  8
M2-0
  6
CONTINUOUS
 62
   254
 10
9948.7465537800017
 20
11507.15219590999
 30
0.0
 70
    32
  0
VERTEX
  5
63
  8
M2-0
  6
CONTINUOUS
 62
   254
 10
9952.6288394599997
 20
11521.64108331
 30
0.0
 70
    32
  0
SEQEND
  5
64
  8
M2-0
 62
   254
  0
POLYLINE
  5
65
  8
M2-0
  6
CONTINUOUS
 62
   254
 66
     1
 10
0.0
 20
0.0
 30
0.0
 70
     8
  0
VERTEX
  5
66
  8
M2-0
  6
CONTINUOUS
 62
   254
 10
9952.6288394599997
 20
11483.663308519999
 30
0.0
 70
    32
  0
VERTEX
  5
67
  8
M2-0
  6
CONTINUOUS
 62
   254
 10
9948.7465537800017
 20
11498.15219590999
 30
0.0
 70
    32
  0
VERTEX
  5
68
  8
M2-0
  6
CONTINUOUS
 62
   254
 10
9944.8642681000001
 20
11483.663308519999
 30
0.0
 70
    32
  0
SEQEND
  5
69
  8
M2-0
 62
   254
  0
LINE
  5
6A
  8
M2-0
  6
CONTINUOUS
 62
   254
 10
9948.7465537800017
 20
11453.15219590999
 30
0.0
 11
9948.7465537800017
 21
11537.15219590999
 31
0.0
  0
LINE
  5
6B
  8
M2-0
  6
CONTINUOUS
 62
   254
 10
10089.085800659999
 20
11307.407006470001
 30
0.0
 11
10089.085800659999
 21
11368.052195910001
 31
0.0
  0
LINE
  5
6C
  8
M2-0
  6
CONTINUOUS
 62
   254
 10
10080.08580065999
 20
11307.407006470001
 30
0.0
 11
10080.08580065999
 21
11368.052195910001
 31
0.0
  0
POLYLINE
  5
6D
  8
M2-0
  6
CONTINUOUS
 62
   254
 66
     1
 10
0.0
 20
0.0
 30
0.0
 70
     8
  0
VERTEX
  5
6E
  8
M2-0
  6
CONTINUOUS
 62
   254
 10
10065.596913269999
 20
11313.424720790001
 30
0.0
 70
    32
  0
VERTEX
  5
6F
  8
M2-0
  6
CONTINUOUS
 62
   254
 10
10080.08580065999
 20
11317.30700647
 30
0.0
 70
    32
  0
VERTEX
  5
70
  8
M2-0
  6
CONTINUOUS
 62
   254
 10
10065.596913269999
 20
11321.18929215
 30
0.0
 70
    32
  0
SEQEND
  5
71
  8
M2-0
 62
   254
  0
POLYLINE
  5
72
  8
M2-0
  6
CONTINUOUS
 62
   254
 66
     1
 10
0.0
 20
0.0
 30
0.0
 70
     8
  0
VERTEX
  5
73
  8
M2-0
  6
CONTINUOUS
 62
   254
 10
10103.574688059991
 20
11321.18929215
 30
0.0
 70
    32
  0
VERTEX
  5
74
  8
M2-0
  6
CONTINUOUS
 62
   254
 10
10089.085800659999
 20
11317.30700647
 30
0.0
 70
    32
  0
VERTEX
  5
75
  8
M2-0
  6
CONTINUOUS
 62
   254
 10
10103.574688059991
 20
11313.424720790001
 30
0.0
 70
    32
  0
SEQEND
  5
76
  8
M2-0
 62
   254
  0
LINE
  5
77
  8
M2-0
  6
CONTINUOUS
 62
   254
 10
10028.015252679999
 20
11317.30700647
 30
0.0
 11
10119.08580065999
 21
11317.30700647
 31
0.0
  0
POLYLINE
  5
78
  8
M2-0
  6
CONTINUOUS
 62
   254
 66
     1
 10
0.0
 20
0.0
 30
0.0
 70
     8
  0
VERTEX
  5
79
  8
M2-0
  6
CONTINUOUS
 62
   254
 10
10107.30165553
 20
11485.680026769989
 30
0.0
 70
    32
  0
VERTEX
  5
7A
  8
M2-0
  6
CONTINUOUS
 62
   254
 10
10095.54638838
 20
11494.99741344
 30
0.0
 70
    32
  0
VERTEX
  5
7B
  8
M2-0
  6
CONTINUOUS
 62
   254
 10
10101.06805503
 20
11481.05068631
 30
0.0
 70
    32
  0
SEQEND
  5
7C
  8
M2-0
 62
   254
  0
LINE
  5
7D
  8
M2-0
  6
CONTINUOUS
 62
   254
 10
10095.54638838
 20
11494.99741344
 30
0.0
 11
10135.56074375999
 21
11441.116410750001
 31
0.0
  0
LINE
  5
7E
  8
M2-0
  6
CONTINUOUS
 62
   254
 10
10135.56074375999
 20
11441.116410750001
 30
0.0
 11
10245.43803730999
 21
11441.116410750001
 31
0.0
  0
LINE
  5
7F
  8
M2-0
  6
CONTINUOUS
 62
   254
 10
9799.5857897000005
 20
11234.84214637
 30
0.0
 11
9799.5857897000005
 21
11634.842148269991
 31
0.0
  0
POINT
  5
80
  8
M2-0
  6
CONTINUOUS
 62
   254
 10
9789.5857893900011
 20
11224.842146340001
 30
0.0
  0
LINE
  5
81
  8
M2-0
  6
CONTINUOUS
 62
   254
 10
9799.5857897000005
 20
11634.842148269991
 30
0.0
 11
10369.58581162999
 21
11634.842148269991
 31
0.0
  0
LINE
  5
82
  8
M2-0
  6
CONTINUOUS
 62
   254
 10
10369.58581162999
 20
11234.84214637
 30
0.0
 11
10369.58581162999
 21
11634.842148269991
 31
0.0
  0
LINE
  5
83
  8
M2-0
  6
CONTINUOUS
 62
   254
 10
9799.5857897000005
 20
11234.84214637
 30
0.0
 11
10369.58581162999
 21
11234.84214637
 31
0.0
  0
ENDSEC
  0
EOF
