  0
SECTION
  2
HEADER
  9
$ACADVER
  1
AC1009
  9
$INSBASE
 10
0.0
 20
0.0
 30
0.0
  9
$EXTMIN
 10
7418.4132088699989
 20
10441.55210099
 30
0.0
  9
$EXTMAX
 10
7998.4132311200001
 20
10851.55210293
 30
0.0
  9
$LIMMIN
 10
7302.4132044199996
 20
10240.55208639
  9
$LIMMAX
 10
8114.4132355700012
 20
11052.55211753
  9
$ORTHOMODE
 70
     0
  9
$REGENMODE
 70
     1
  9
$FILLMODE
 70
     1
  9
$QTEXTMODE
 70
     0
  9
$MIRRTEXT
 70
     1
  9
$DRAGMODE
 70
     2
  9
$LTSCALE
 40
1.0
  9
$OSMODE
 70
    37
  9
$ATTMODE
 70
     1
  9
$TEXTSIZE
 40
0.2
  9
$TRACEWID
 40
0.05
  9
$TEXTSTYLE
  7
STANDARD
  9
$CLAYER
  8
41
  9
$CELTYPE
  6
BYLAYER
  9
$CECOLOR
 62
   256
  9
$DIMSCALE
 40
1.0
  9
$DIMASZ
 40
1.0
  9
$DIMEXO
 40
0.0625
  9
$DIMDLI
 40
0.38
  9
$DIMRND
 40
0.0
  9
$DIMDLE
 40
0.0
  9
$DIMEXE
 40
0.18
  9
$DIMTP
 40
0.0
  9
$DIMTM
 40
0.0
  9
$DIMTXT
 40
3.0
  9
$DIMCEN
 40
0.09
  9
$DIMTSZ
 40
0.0
  9
$DIMTOL
 70
     0
  9
$DIMLIM
 70
     0
  9
$DIMTIH
 70
     1
  9
$DIMTOH
 70
     1
  9
$DIMSE1
 70
     0
  9
$DIMSE2
 70
     0
  9
$DIMTAD
 70
     0
  9
$DIMZIN
 70
     0
  9
$DIMBLK
  1

  9
$DIMASO
 70
     1
  9
$DIMSHO
 70
     0
  9
$DIMPOST
  1
        
  9
$DIMAPOST
  1
        
  9
$DIMALT
 70
     0
  9
$DIMALTD
 70
     4
  9
$DIMALTF
 40
25.399999999999999
  9
$DIMLFAC
 40
1.0
  9
$DIMTOFL
 70
     0
  9
$DIMTVP
 40
0.0
  9
$DIMTIX
 70
     0
  9
$DIMSOXD
 70
     0
  9
$DIMSAH
 70
     0
  9
$DIMBLK1
  1

  9
$DIMBLK2
  1

  9
$DIMSTYLE
  2
STANDARD
  9
$DIMCLRD
 70
     0
  9
$DIMCLRE
 70
     0
  9
$DIMCLRT
 70
     0
  9
$DIMTFAC
 40
1.0
  9
$DIMGAP
 40
0.09
  9
$LUNITS
 70
     2
  9
$LUPREC
 70
     4
  9
$SKETCHINC
 40
0.1
  9
$FILLETRAD
 40
0.0
  9
$AUNITS
 70
     1
  9
$AUPREC
 70
     4
  9
$MENU
  1
        
  9
$ELEVATION
 40
0.0
  9
$PELEVATION
 40
0.0
  9
$THICKNESS
 40
0.0
  9
$LIMCHECK
 70
     0
  9
$BLIPMODE
 70
     0
  9
$CHAMFERA
 40
0.0
  9
$CHAMFERB
 40
0.0
  9
$SKPOLY
 70
     0
  9
$TDCREATE
 40
2452194.5794134261
  9
$TDUPDATE
 40
2452194.5797081832
  9
$TDINDWG
 40
0.0002951042
  9
$TDUSRTIMER
 40
0.0002951042
  9
$USRTIMER
 70
     1
  9
$ANGBASE
 50
0.0
  9
$ANGDIR
 70
     0
  9
$PDMODE
 70
     0
  9
$PDSIZE
 40
0.0
  9
$PLINEWID
 40
0.0
  9
$COORDS
 70
     1
  9
$SPLFRAME
 70
     0
  9
$SPLINETYPE
 70
     6
  9
$SPLINESEGS
 70
     8
  9
$ATTDIA
 70
     0
  9
$ATTREQ
 70
     1
  9
$HANDLING
 70
  4097
  9
$HANDSEED
  5
90
  9
$SURFTAB1
 70
     6
  9
$SURFTAB2
 70
     6
  9
$SURFTYPE
 70
     6
  9
$SURFU
 70
     6
  9
$SURFV
 70
     6
  9
$UCSNAME
  2

  9
$UCSORG
 10
0.0
 20
0.0
 30
0.0
  9
$UCSXDIR
 10
1.0
 20
0.0
 30
0.0
  9
$UCSYDIR
 10
0.0
 20
1.0
 30
0.0
  9
$PUCSNAME
  2

  9
$PUCSORG
 10
0.0
 20
0.0
 30
0.0
  9
$PUCSXDIR
 10
1.0
 20
0.0
 30
0.0
  9
$PUCSYDIR
 10
0.0
 20
1.0
 30
0.0
  9
$USERI1
 70
     0
  9
$USERI2
 70
     0
  9
$USERI3
 70
     0
  9
$USERI4
 70
     0
  9
$USERI5
 70
     0
  9
$USERR1
 40
0.0
  9
$USERR2
 40
0.0
  9
$USERR3
 40
0.0
  9
$USERR4
 40
0.0
  9
$USERR5
 40
0.0
  9
$WORLDVIEW
 70
     1
  9
$SHADEDGE
 70
     3
  9
$SHADEDIF
 70
    70
  9
$TILEMODE
 70
     1
  9
$MAXACTVP
 70
    64
  9
$PLIMCHECK
 70
     0
  9
$PEXTMIN
 10
1.0000000000000000E+020
 20
1.0000000000000000E+020
 30
1.0000000000000000E+020
  9
$PEXTMAX
 10
-1.0000000000000000E+020
 20
-1.0000000000000000E+020
 30
-1.0000000000000000E+020
  9
$PLIMMIN
 10
0.0
 20
0.0
  9
$PLIMMAX
 10
12.0
 20
9.0
  9
$UNITMODE
 70
     0
  9
$VISRETAIN
 70
     1
  9
$PLINEGEN
 70
     0
  9
$PSLTSCALE
 70
     1
  0
ENDSEC
  0
SECTION
  2
TABLES
  0
TABLE
  2
VPORT
 70
     3
  0
VPORT
  2
*ACTIVE
 70
     0
 10
0.0
 20
0.0
 11
1.0
 21
1.0
 12
7708.4132199950009
 22
10646.55210196
 13
0.0
 23
0.0
 14
1.0
 24
1.0
 15
0.0
 25
0.0
 16
0.0
 26
0.0
 36
1.0
 17
0.0
 27
0.0
 37
0.0
 40
818.1515465274241
 41
1.571428571428571
 42
50.0
 43
0.0
 44
0.0
 50
0.0
 51
0.0
 71
     0
 72
   100
 73
     1
 74
     1
 75
     0
 76
     0
 77
     0
 78
     0
  0
ENDTAB
  0
TABLE
  2
LTYPE
 70
     6
  0
LTYPE
  2
CONTINUOUS
 70
     0
  3
Solid line
 72
    65
 73
     0
 40
0.0
  0
LTYPE
  2
DOT
 70
     0
  3
Dot line
 72
    65
 73
     2
 40
1.0
 49
0.0
 49
-1.0
  0
LTYPE
  2
HIDDEN
 70
     0
  3
Hidden line
 72
    65
 73
     2
 40
1.5
 49
1.0
 49
-0.5
  0
LTYPE
  2
DASHED
 70
     0
  3
Dashed line
 72
    65
 73
     2
 40
3.0
 49
2.0
 49
-1.0
  0
LTYPE
  2
CENTER
 70
     0
  3
Center line
 72
    65
 73
     4
 40
8.0
 49
5.0
 49
-1.0
 49
1.0
 49
-1.0
  0
LTYPE
  2
PHANTOM
 70
     0
  3
Phantom line
 72
    65
 73
     6
 40
10.0
 49
5.0
 49
-1.0
 49
1.0
 49
-1.0
 49
1.0
 49
-1.0
  0
ENDTAB
  0
TABLE
  2
LAYER
 70
     9
  0
LAYER
  2
0
 70
     0
 62
     5
  6
CONTINUOUS
  0
LAYER
  2
41
 70
     0
 62
     7
  6
CONTINUOUS
  0
LAYER
  2
1
 70
     0
 62
     1
  6
CONTINUOUS
  0
LAYER
  2
2
 70
     0
 62
     7
  6
CONTINUOUS
  0
LAYER
  2
3
 70
     0
 62
     3
  6
CONTINUOUS
  0
LAYER
  2
4
 70
     0
 62
     6
  6
CONTINUOUS
  0
LAYER
  2
5
 70
     0
 62
     2
  6
CONTINUOUS
  0
LAYER
  2
6
 70
     0
 62
     4
  6
CONTINUOUS
  0
LAYER
  2
M2-0
 70
     0
 62
     7
  6
CONTINUOUS
  0
ENDTAB
  0
TABLE
  2
STYLE
 70
     2
  0
STYLE
  2
STANDARD
 70
     0
 40
0.0
 41
1.0
 50
0.0
 71
     0
 42
0.2
  3
TXT
  4
BIGFONT
  0
STYLE
  2
STANDARD1
 70
     4
 40
0.0
 41
1.0
 50
0.0
 71
     0
 42
0.2
  3
TXT
  4
BIGFONT
  0
ENDTAB
  0
TABLE
  2
VIEW
 70
     0
  0
ENDTAB
  0
TABLE
  2
UCS
 70
     0
  0
ENDTAB
  0
TABLE
  2
APPID
 70
     1
  0
APPID
  2
ACAD
 70
     0
  0
ENDTAB
  0
TABLE
  2
DIMSTYLE
 70
     1
  0
DIMSTYLE
  2
STANDARD
 70
     0
  3

  4

  5

  6

  7

 40
1.0
 41
0.18
 42
0.0625
 43
0.38
 44
0.18
 45
0.0
 46
0.0
 47
0.0
 48
0.0
140
0.18
141
0.09
142
0.0
143
25.399999999999999
144
1.0
145
0.0
146
1.0
147
0.09
 71
     0
 72
     0
 73
     1
 74
     1
 75
     0
 76
     0
 77
     0
 78
     0
170
     0
171
     2
172
     0
173
     0
174
     0
175
     0
176
     0
177
     0
178
     0
  0
ENDTAB
  0
ENDSEC
  0
SECTION
  2
BLOCKS
  0
BLOCK
  8
0
  2
$MODEL_SPACE
 70
     0
 10
0.0
 20
0.0
 30
0.0
  3
$MODEL_SPACE
  1

  0
ENDBLK
  5
20
  8
0
  0
BLOCK
 67
     1
  8
0
  2
$PAPER_SPACE
 70
     0
 10
0.0
 20
0.0
 30
0.0
  3
$PAPER_SPACE
  1

  0
ENDBLK
  5
1C
 67
     1
  8
0
  0
ENDSEC
  0
SECTION
  2
ENTITIES
  0
LINE
  5
33
  8
M2-0
  6
CONTINUOUS
 62
     1
 10
7625.4132201499997
 20
10716.36215056
 30
0.0
 11
7692.4132201499997
 21
10716.36215056
 31
0.0
  0
ARC
  5
34
  8
M2-0
  6
CONTINUOUS
 62
     1
 10
7692.4132201499997
 20
10700.36215056
 30
0.0
 40
16.0
 50
0.0
 51
90.0
  0
LINE
  5
35
  8
M2-0
  6
CONTINUOUS
 62
     1
 10
7708.4132201499988
 20
10604.36215056
 30
0.0
 11
7708.4132201499988
 21
10700.36215056
 31
0.0
  0
LINE
  5
36
  8
M2-0
  6
CONTINUOUS
 62
     1
 10
7708.4132201499988
 20
10604.36215056
 30
0.0
 11
7718.4132201499988
 21
10604.36215056
 31
0.0
  0
LINE
  5
37
  8
M2-0
  6
CONTINUOUS
 62
     1
 10
7718.4132201499988
 20
10604.36215056
 30
0.0
 11
7718.4132201499988
 21
10700.36215056
 31
0.0
  0
ARC
  5
38
  8
M2-0
  6
CONTINUOUS
 62
     1
 10
7734.4132201499997
 20
10700.36215056
 30
0.0
 40
16.0
 50
90.0
 51
180.0
  0
LINE
  5
39
  8
M2-0
  6
CONTINUOUS
 62
     1
 10
7734.4132201499997
 20
10716.36215056
 30
0.0
 11
7801.4132201499997
 21
10716.36215056
 31
0.0
  0
LINE
  5
3A
  8
M2-0
  6
CONTINUOUS
 62
     1
 10
7801.4132201499997
 20
10716.36215056
 30
0.0
 11
7801.4132201499997
 21
10724.36215056
 31
0.0
  0
LINE
  5
3B
  8
M2-0
  6
CONTINUOUS
 62
     1
 10
7625.4132201499997
 20
10724.36215056
 30
0.0
 11
7801.4132201499997
 21
10724.36215056
 31
0.0
  0
LINE
  5
3C
  8
M2-0
  6
CONTINUOUS
 62
     1
 10
7625.4132201499997
 20
10716.36215056
 30
0.0
 11
7625.4132201499997
 21
10724.36215056
 31
0.0
  0
TEXT
  5
3D
  8
M2-0
  6
CONTINUOUS
 62
     2
 10
7511.7016227900012
 20
10475.38209513
 30
0.0
 40
24.000000360000001
  1
CT 120X176X10X8
  0
LINE
  5
3E
  8
M2-0
  6
PHANTOM
 62
   254
 10
7713.4132201499988
 20
10604.36215056
 30
0.0
 11
7713.4132201499988
 21
10724.36215056
 31
0.0
  0
TEXT
  5
3F
  8
M2-0
  6
CONTINUOUS
 62
   254
 10
7668.4132201499988
 20
10813.20660854
 30
0.0
 40
24.000000360000001
  1
１７６
  0
TEXT
  5
40
  8
M2-0
  6
CONTINUOUS
 62
   254
 10
7520.1300600100003
 20
10619.36215056
 30
0.0
 40
24.000000360000001
  1
１２０
 50
90.0
  0
TEXT
  5
41
  8
M2-0
  6
CONTINUOUS
 62
   254
 10
7572.0724669800002
 20
10678.34327046
 30
0.0
 40
24.000000360000001
  1
８
 50
90.0
  0
TEXT
  5
42
  8
M2-0
  6
CONTINUOUS
 62
   254
 10
7641.5462228400002
 20
10546.94022971
 30
0.0
 40
24.000000360000001
  1
１０
  0
TEXT
  5
43
  8
M2-0
  6
CONTINUOUS
 62
   254
 10
7763.1246884299999
 20
10674.62685156999
 30
0.0
 40
24.000000360000001
  1
Ｒ１６
  0
POLYLINE
  5
44
  8
M2-0
  6
CONTINUOUS
 62
   254
 66
     1
 10
0.0
 20
0.0
 30
0.0
 70
     8
  0
VERTEX
  5
45
  8
M2-0
  6
CONTINUOUS
 62
   254
 10
7639.9021075500004
 20
10807.18889422
 30
0.0
 70
    32
  0
VERTEX
  5
46
  8
M2-0
  6
CONTINUOUS
 62
   254
 10
7625.4132201499997
 20
10803.306608540001
 30
0.0
 70
    32
  0
VERTEX
  5
47
  8
M2-0
  6
CONTINUOUS
 62
   254
 10
7639.9021075500004
 20
10799.424322869991
 30
0.0
 70
    32
  0
SEQEND
  5
48
  8
M2-0
 62
   254
  0
POLYLINE
  5
49
  8
M2-0
  6
CONTINUOUS
 62
   254
 66
     1
 10
0.0
 20
0.0
 30
0.0
 70
     8
  0
VERTEX
  5
4A
  8
M2-0
  6
CONTINUOUS
 62
   254
 10
7786.9243327599997
 20
10799.424322869991
 30
0.0
 70
    32
  0
VERTEX
  5
4B
  8
M2-0
  6
CONTINUOUS
 62
   254
 10
7801.4132201499997
 20
10803.306608540001
 30
0.0
 70
    32
  0
VERTEX
  5
4C
  8
M2-0
  6
CONTINUOUS
 62
   254
 10
7786.9243327599997
 20
10807.18889422
 30
0.0
 70
    32
  0
SEQEND
  5
4D
  8
M2-0
 62
   254
  0
LINE
  5
4E
  8
M2-0
  6
CONTINUOUS
 62
   254
 10
7625.4132201499997
 20
10803.306608540001
 30
0.0
 11
7801.4132201499997
 21
10803.306608540001
 31
0.0
  0
LINE
  5
4F
  8
M2-0
  6
CONTINUOUS
 62
   254
 10
7801.4132201499997
 20
10813.20660854
 30
0.0
 11
7801.4132201499997
 21
10744.462150560001
 31
0.0
  0
LINE
  5
50
  8
M2-0
  6
CONTINUOUS
 62
   254
 10
7625.4132201499997
 20
10813.20660854
 30
0.0
 11
7625.4132201499997
 21
10744.462150560001
 31
0.0
  0
POLYLINE
  5
51
  8
M2-0
  6
CONTINUOUS
 62
   254
 66
     1
 10
0.0
 20
0.0
 30
0.0
 70
     8
  0
VERTEX
  5
52
  8
M2-0
  6
CONTINUOUS
 62
   254
 10
7533.9123456899997
 20
10709.87326316999
 30
0.0
 70
    32
  0
VERTEX
  5
53
  8
M2-0
  6
CONTINUOUS
 62
   254
 10
7530.0300600099999
 20
10724.36215056
 30
0.0
 70
    32
  0
VERTEX
  5
54
  8
M2-0
  6
CONTINUOUS
 62
   254
 10
7526.1477743400001
 20
10709.87326316999
 30
0.0
 70
    32
  0
SEQEND
  5
55
  8
M2-0
 62
   254
  0
POLYLINE
  5
56
  8
M2-0
  6
CONTINUOUS
 62
   254
 66
     1
 10
0.0
 20
0.0
 30
0.0
 70
     8
  0
VERTEX
  5
57
  8
M2-0
  6
CONTINUOUS
 62
   254
 10
7526.1477743400001
 20
10618.85103795999
 30
0.0
 70
    32
  0
VERTEX
  5
58
  8
M2-0
  6
CONTINUOUS
 62
   254
 10
7530.0300600099999
 20
10604.36215056
 30
0.0
 70
    32
  0
VERTEX
  5
59
  8
M2-0
  6
CONTINUOUS
 62
   254
 10
7533.9123456899997
 20
10618.85103795999
 30
0.0
 70
    32
  0
SEQEND
  5
5A
  8
M2-0
 62
   254
  0
LINE
  5
5B
  8
M2-0
  6
CONTINUOUS
 62
   254
 10
7530.0300600099999
 20
10724.36215056
 30
0.0
 11
7530.0300600099999
 21
10604.36215056
 31
0.0
  0
LINE
  5
5C
  8
M2-0
  6
CONTINUOUS
 62
   254
 10
7520.1300600100003
 20
10604.36215056
 30
0.0
 11
7688.3132201500002
 21
10604.36215056
 31
0.0
  0
LINE
  5
5D
  8
M2-0
  6
CONTINUOUS
 62
   254
 10
7520.1300600100003
 20
10724.36215056
 30
0.0
 11
7605.3132201500011
 21
10724.36215056
 31
0.0
  0
LINE
  5
5E
  8
M2-0
  6
CONTINUOUS
 62
   254
 10
7572.0724669800002
 20
10716.36215056
 30
0.0
 11
7605.3132201500011
 21
10716.36215056
 31
0.0
  0
LINE
  5
5F
  8
M2-0
  6
CONTINUOUS
 62
   254
 10
7572.0724669800002
 20
10724.36215056
 30
0.0
 11
7605.3132201500011
 21
10724.36215056
 31
0.0
  0
POLYLINE
  5
60
  8
M2-0
  6
CONTINUOUS
 62
   254
 66
     1
 10
0.0
 20
0.0
 30
0.0
 70
     8
  0
VERTEX
  5
61
  8
M2-0
  6
CONTINUOUS
 62
   254
 10
7578.0901813
 20
10738.85103795999
 30
0.0
 70
    32
  0
VERTEX
  5
62
  8
M2-0
  6
CONTINUOUS
 62
   254
 10
7581.9724669799989
 20
10724.36215056
 30
0.0
 70
    32
  0
VERTEX
  5
63
  8
M2-0
  6
CONTINUOUS
 62
   254
 10
7585.8547526599987
 20
10738.85103795999
 30
0.0
 70
    32
  0
SEQEND
  5
64
  8
M2-0
 62
   254
  0
POLYLINE
  5
65
  8
M2-0
  6
CONTINUOUS
 62
   254
 66
     1
 10
0.0
 20
0.0
 30
0.0
 70
     8
  0
VERTEX
  5
66
  8
M2-0
  6
CONTINUOUS
 62
   254
 10
7585.8547526599987
 20
10701.87326317
 30
0.0
 70
    32
  0
VERTEX
  5
67
  8
M2-0
  6
CONTINUOUS
 62
   254
 10
7581.9724669799989
 20
10716.36215056
 30
0.0
 70
    32
  0
VERTEX
  5
68
  8
M2-0
  6
CONTINUOUS
 62
   254
 10
7578.0901813
 20
10701.87326317
 30
0.0
 70
    32
  0
SEQEND
  5
69
  8
M2-0
 62
   254
  0
LINE
  5
6A
  8
M2-0
  6
CONTINUOUS
 62
   254
 10
7581.9724669799989
 20
10663.343270459991
 30
0.0
 11
7581.9724669799989
 21
10754.36215056
 31
0.0
  0
LINE
  5
6B
  8
M2-0
  6
CONTINUOUS
 62
   254
 10
7718.4132201499988
 20
10527.14022970999
 30
0.0
 11
7718.4132201499988
 21
10584.262150559989
 31
0.0
  0
LINE
  5
6C
  8
M2-0
  6
CONTINUOUS
 62
   254
 10
7708.4132201499988
 20
10527.14022970999
 30
0.0
 11
7708.4132201499988
 21
10584.262150559989
 31
0.0
  0
POLYLINE
  5
6D
  8
M2-0
  6
CONTINUOUS
 62
   254
 66
     1
 10
0.0
 20
0.0
 30
0.0
 70
     8
  0
VERTEX
  5
6E
  8
M2-0
  6
CONTINUOUS
 62
   254
 10
7693.9243327599988
 20
10533.157944029999
 30
0.0
 70
    32
  0
VERTEX
  5
6F
  8
M2-0
  6
CONTINUOUS
 62
   254
 10
7708.4132201499988
 20
10537.040229710001
 30
0.0
 70
    32
  0
VERTEX
  5
70
  8
M2-0
  6
CONTINUOUS
 62
   254
 10
7693.9243327599988
 20
10540.92251538
 30
0.0
 70
    32
  0
SEQEND
  5
71
  8
M2-0
 62
   254
  0
POLYLINE
  5
72
  8
M2-0
  6
CONTINUOUS
 62
   254
 66
     1
 10
0.0
 20
0.0
 30
0.0
 70
     8
  0
VERTEX
  5
73
  8
M2-0
  6
CONTINUOUS
 62
   254
 10
7732.9021075500013
 20
10540.92251538
 30
0.0
 70
    32
  0
VERTEX
  5
74
  8
M2-0
  6
CONTINUOUS
 62
   254
 10
7718.4132201499988
 20
10537.040229710001
 30
0.0
 70
    32
  0
VERTEX
  5
75
  8
M2-0
  6
CONTINUOUS
 62
   254
 10
7732.9021075500013
 20
10533.157944029999
 30
0.0
 70
    32
  0
SEQEND
  5
76
  8
M2-0
 62
   254
  0
LINE
  5
77
  8
M2-0
  6
CONTINUOUS
 62
   254
 10
7626.5462228400002
 20
10537.040229710001
 30
0.0
 11
7748.4132201499997
 21
10537.040229710001
 31
0.0
  0
POLYLINE
  5
78
  8
M2-0
  6
CONTINUOUS
 62
   254
 66
     1
 10
0.0
 20
0.0
 30
0.0
 70
     8
  0
VERTEX
  5
79
  8
M2-0
  6
CONTINUOUS
 62
   254
 10
7736.9132906900013
 20
10703.694604719991
 30
0.0
 70
    32
  0
VERTEX
  5
7A
  8
M2-0
  6
CONTINUOUS
 62
   254
 10
7725.9690069599992
 20
10713.95241412
 30
0.0
 70
    32
  0
VERTEX
  5
7B
  8
M2-0
  6
CONTINUOUS
 62
   254
 10
7730.3181299899998
 20
10699.59674873
 30
0.0
 70
    32
  0
SEQEND
  5
7C
  8
M2-0
 62
   254
  0
LINE
  5
7D
  8
M2-0
  6
CONTINUOUS
 62
   254
 10
7725.9690069599992
 20
10713.95241412
 30
0.0
 11
7756.5549586400011
 21
10664.72685157
 31
0.0
  0
LINE
  5
7E
  8
M2-0
  6
CONTINUOUS
 62
   254
 10
7756.5549586400011
 20
10664.72685157
 30
0.0
 11
7868.1246884299999
 21
10664.72685157
 31
0.0
  0
LINE
  5
7F
  8
M2-0
  6
CONTINUOUS
 62
   254
 10
7428.4132091800002
 20
10451.55210101999
 30
0.0
 11
7428.4132091800002
 21
10851.55210293
 31
0.0
  0
POINT
  5
80
  8
M2-0
  6
CONTINUOUS
 62
   254
 10
7418.4132088699989
 20
10441.55210099
 30
0.0
  0
LINE
  5
81
  8
M2-0
  6
CONTINUOUS
 62
   254
 10
7428.4132091800002
 20
10851.55210293
 30
0.0
 11
7998.4132311200001
 21
10851.55210293
 31
0.0
  0
LINE
  5
82
  8
M2-0
  6
CONTINUOUS
 62
   254
 10
7998.4132311200001
 20
10451.55210101999
 30
0.0
 11
7998.4132311200001
 21
10851.55210293
 31
0.0
  0
LINE
  5
83
  8
M2-0
  6
CONTINUOUS
 62
   254
 10
7428.4132091800002
 20
10451.55210101999
 30
0.0
 11
7998.4132311200001
 21
10451.55210101999
 31
0.0
  0
ENDSEC
  0
EOF
