  0
SECTION
  2
HEADER
  9
$ACADVER
  1
AC1009
  9
$INSBASE
 10
0.0
 20
0.0
 30
0.0
  9
$EXTMIN
 10
14902.218734539991
 20
11881.688460859999
 30
0.0
  9
$EXTMAX
 10
17222.218820959999
 20
13521.68848819
 30
0.0
  9
$LIMMIN
 10
14438.218717249991
 20
11077.688414030001
  9
$LIMMAX
 10
17686.218838249999
 20
14325.688535019999
  9
$ORTHOMODE
 70
     0
  9
$REGENMODE
 70
     1
  9
$FILLMODE
 70
     1
  9
$QTEXTMODE
 70
     0
  9
$MIRRTEXT
 70
     1
  9
$DRAGMODE
 70
     2
  9
$LTSCALE
 40
1.0
  9
$OSMODE
 70
    43
  9
$ATTMODE
 70
     1
  9
$TEXTSIZE
 40
0.2
  9
$TRACEWID
 40
0.05
  9
$TEXTSTYLE
  7
STANDARD
  9
$CLAYER
  8
41
  9
$CELTYPE
  6
BYLAYER
  9
$CECOLOR
 62
   256
  9
$DIMSCALE
 40
1.0
  9
$DIMASZ
 40
1.0
  9
$DIMEXO
 40
0.0625
  9
$DIMDLI
 40
0.38
  9
$DIMRND
 40
0.0
  9
$DIMDLE
 40
0.0
  9
$DIMEXE
 40
0.18
  9
$DIMTP
 40
0.0
  9
$DIMTM
 40
0.0
  9
$DIMTXT
 40
3.0
  9
$DIMCEN
 40
0.09
  9
$DIMTSZ
 40
0.0
  9
$DIMTOL
 70
     0
  9
$DIMLIM
 70
     0
  9
$DIMTIH
 70
     1
  9
$DIMTOH
 70
     1
  9
$DIMSE1
 70
     0
  9
$DIMSE2
 70
     0
  9
$DIMTAD
 70
     0
  9
$DIMZIN
 70
     0
  9
$DIMBLK
  1

  9
$DIMASO
 70
     1
  9
$DIMSHO
 70
     1
  9
$DIMPOST
  1

  9
$DIMAPOST
  1

  9
$DIMALT
 70
     0
  9
$DIMALTD
 70
     2
  9
$DIMALTF
 40
25.399999999999999
  9
$DIMLFAC
 40
1.0
  9
$DIMTOFL
 70
     0
  9
$DIMTVP
 40
0.0
  9
$DIMTIX
 70
     0
  9
$DIMSOXD
 70
     0
  9
$DIMSAH
 70
     0
  9
$DIMBLK1
  1

  9
$DIMBLK2
  1

  9
$DIMSTYLE
  2
STANDARD
  9
$DIMCLRD
 70
     0
  9
$DIMCLRE
 70
     0
  9
$DIMCLRT
 70
     0
  9
$DIMTFAC
 40
1.0
  9
$DIMGAP
 40
0.09
  9
$LUNITS
 70
     2
  9
$LUPREC
 70
     4
  9
$SKETCHINC
 40
0.1
  9
$FILLETRAD
 40
0.0
  9
$AUNITS
 70
     1
  9
$AUPREC
 70
     4
  9
$MENU
  1
        
  9
$ELEVATION
 40
0.0
  9
$PELEVATION
 40
0.0
  9
$THICKNESS
 40
0.0
  9
$LIMCHECK
 70
     0
  9
$BLIPMODE
 70
     0
  9
$CHAMFERA
 40
0.0
  9
$CHAMFERB
 40
0.0
  9
$SKPOLY
 70
     0
  9
$TDCREATE
 40
2452201.544378425
  9
$TDUPDATE
 40
2452201.5527147101
  9
$TDINDWG
 40
0.000776794
  9
$TDUSRTIMER
 40
0.0007765625
  9
$USRTIMER
 70
     1
  9
$ANGBASE
 50
0.0
  9
$ANGDIR
 70
     0
  9
$PDMODE
 70
     0
  9
$PDSIZE
 40
0.0
  9
$PLINEWID
 40
0.0
  9
$COORDS
 70
     0
  9
$SPLFRAME
 70
     0
  9
$SPLINETYPE
 70
     6
  9
$SPLINESEGS
 70
     8
  9
$ATTDIA
 70
     0
  9
$ATTREQ
 70
     1
  9
$HANDLING
 70
  4097
  9
$HANDSEED
  5
B13
  9
$SURFTAB1
 70
     6
  9
$SURFTAB2
 70
     6
  9
$SURFTYPE
 70
     6
  9
$SURFU
 70
     6
  9
$SURFV
 70
     6
  9
$UCSNAME
  2

  9
$UCSORG
 10
0.0
 20
0.0
 30
0.0
  9
$UCSXDIR
 10
1.0
 20
0.0
 30
0.0
  9
$UCSYDIR
 10
0.0
 20
1.0
 30
0.0
  9
$PUCSNAME
  2

  9
$PUCSORG
 10
0.0
 20
0.0
 30
0.0
  9
$PUCSXDIR
 10
1.0
 20
0.0
 30
0.0
  9
$PUCSYDIR
 10
0.0
 20
1.0
 30
0.0
  9
$USERI1
 70
     0
  9
$USERI2
 70
     0
  9
$USERI3
 70
     0
  9
$USERI4
 70
     0
  9
$USERI5
 70
     0
  9
$USERR1
 40
0.0
  9
$USERR2
 40
0.0
  9
$USERR3
 40
0.0
  9
$USERR4
 40
0.0
  9
$USERR5
 40
0.0
  9
$WORLDVIEW
 70
     1
  9
$SHADEDGE
 70
     3
  9
$SHADEDIF
 70
    70
  9
$TILEMODE
 70
     1
  9
$MAXACTVP
 70
    64
  9
$PLIMCHECK
 70
     0
  9
$PEXTMIN
 10
1.0000000000000000E+020
 20
1.0000000000000000E+020
 30
1.0000000000000000E+020
  9
$PEXTMAX
 10
-1.0000000000000000E+020
 20
-1.0000000000000000E+020
 30
-1.0000000000000000E+020
  9
$PLIMMIN
 10
0.0
 20
0.0
  9
$PLIMMAX
 10
12.0
 20
9.0
  9
$UNITMODE
 70
     0
  9
$VISRETAIN
 70
     1
  9
$PLINEGEN
 70
     0
  9
$PSLTSCALE
 70
     1
  0
ENDSEC
  0
SECTION
  2
TABLES
  0
TABLE
  2
VPORT
 70
     2
  0
VPORT
  2
*ACTIVE
 70
     0
 10
0.0
 20
0.0
 11
1.0
 21
1.0
 12
16062.21877775
 22
12701.68847452499
 13
0.0
 23
0.0
 14
1.0
 24
1.0
 15
0.0
 25
0.0
 16
0.0
 26
0.0
 36
1.0
 17
0.0
 27
0.0
 37
0.0
 40
1652.3308546031601
 41
1.478042659974905
 42
50.0
 43
0.0
 44
0.0
 50
0.0
 51
0.0
 71
     0
 72
   100
 73
     1
 74
     1
 75
     0
 76
     0
 77
     0
 78
     0
  0
ENDTAB
  0
TABLE
  2
LTYPE
 70
     6
  0
LTYPE
  2
CONTINUOUS
 70
     0
  3
Solid line
 72
    65
 73
     0
 40
0.0
  0
LTYPE
  2
DOT
 70
     0
  3
Dot line
 72
    65
 73
     2
 40
1.0
 49
0.0
 49
-1.0
  0
LTYPE
  2
HIDDEN
 70
     0
  3
Hidden line
 72
    65
 73
     2
 40
1.5
 49
1.0
 49
-0.5
  0
LTYPE
  2
DASHED
 70
     0
  3
Dashed line
 72
    65
 73
     2
 40
3.0
 49
2.0
 49
-1.0
  0
LTYPE
  2
CENTER
 70
     0
  3
Center line
 72
    65
 73
     4
 40
8.0
 49
5.0
 49
-1.0
 49
1.0
 49
-1.0
  0
LTYPE
  2
PHANTOM
 70
     0
  3
Phantom line
 72
    65
 73
     6
 40
10.0
 49
5.0
 49
-1.0
 49
1.0
 49
-1.0
 49
1.0
 49
-1.0
  0
ENDTAB
  0
TABLE
  2
LAYER
 70
     9
  0
LAYER
  2
0
 70
     0
 62
     5
  6
CONTINUOUS
  0
LAYER
  2
41
 70
     0
 62
     7
  6
CONTINUOUS
  0
LAYER
  2
1
 70
     0
 62
     1
  6
CONTINUOUS
  0
LAYER
  2
2
 70
     0
 62
     7
  6
CONTINUOUS
  0
LAYER
  2
3
 70
     0
 62
     3
  6
CONTINUOUS
  0
LAYER
  2
4
 70
     0
 62
     6
  6
CONTINUOUS
  0
LAYER
  2
5
 70
     0
 62
     2
  6
CONTINUOUS
  0
LAYER
  2
6
 70
     0
 62
     4
  6
CONTINUOUS
  0
LAYER
  2
M2-0
 70
     0
 62
     7
  6
CONTINUOUS
  0
ENDTAB
  0
TABLE
  2
STYLE
 70
     2
  0
STYLE
  2
STANDARD
 70
     0
 40
0.0
 41
1.0
 50
0.0
 71
     0
 42
0.2
  3
TXT
  4
BIGFONT
  0
STYLE
  2
STANDARD1
 70
     4
 40
0.0
 41
1.0
 50
0.0
 71
     0
 42
0.2
  3
TXT
  4
BIGFONT
  0
ENDTAB
  0
TABLE
  2
VIEW
 70
     0
  0
ENDTAB
  0
TABLE
  2
UCS
 70
     0
  0
ENDTAB
  0
TABLE
  2
APPID
 70
     1
  0
APPID
  2
ACAD
 70
     0
  0
ENDTAB
  0
TABLE
  2
DIMSTYLE
 70
     1
  0
DIMSTYLE
  2
STANDARD
 70
     0
  3

  4

  5

  6

  7

 40
1.0
 41
0.18
 42
0.0625
 43
0.38
 44
0.18
 45
0.0
 46
0.0
 47
0.0
 48
0.0
140
0.18
141
0.09
142
0.0
143
25.399999999999999
144
1.0
145
0.0
146
1.0
147
0.09
 71
     0
 72
     0
 73
     1
 74
     1
 75
     0
 76
     0
 77
     0
 78
     0
170
     0
171
     2
172
     0
173
     0
174
     0
175
     0
176
     0
177
     0
178
     0
  0
ENDTAB
  0
ENDSEC
  0
SECTION
  2
BLOCKS
  0
BLOCK
  8
0
  2
$MODEL_SPACE
 70
     0
 10
0.0
 20
0.0
 30
0.0
  3
$MODEL_SPACE
  1

  0
ENDBLK
  5
7D9
  8
0
  0
BLOCK
 67
     1
  8
0
  2
$PAPER_SPACE
 70
     0
 10
0.0
 20
0.0
 30
0.0
  3
$PAPER_SPACE
  1

  0
ENDBLK
  5
7D5
 67
     1
  8
0
  0
ENDSEC
  0
SECTION
  2
ENTITIES
  0
LINE
  5
7F3
  8
M2-0
  6
CONTINUOUS
 62
     1
 10
14942.218733219999
 20
11921.68846148
 30
0.0
 11
17222.218820959999
 21
11921.68846148
 31
0.0
  0
LINE
  5
7F4
  8
M2-0
  6
CONTINUOUS
 62
     1
 10
17222.218820959999
 20
11921.68846148
 30
0.0
 11
17222.218820959999
 21
13521.68848819
 31
0.0
  0
POINT
  5
7F5
  8
M2-0
  6
CONTINUOUS
 62
     1
 10
14902.218734539991
 20
11881.688460859999
 30
0.0
  0
LINE
  5
7F6
  8
M2-0
  6
CONTINUOUS
 62
     1
 10
14942.218733219999
 20
13521.68848819
 30
0.0
 11
14942.218733219999
 21
11921.68846148
 31
0.0
  0
LINE
  5
7F7
  8
M2-0
  6
CONTINUOUS
 62
     1
 10
17222.218820959999
 20
13521.68848819
 30
0.0
 11
14942.218733219999
 21
13521.68848819
 31
0.0
  0
TEXT
  5
7F8
  8
M2-0
  6
CONTINUOUS
 62
     3
 10
15562.362676590001
 20
12305.716067470001
 30
0.0
 40
24.000000360000001
  1
７５
  0
TEXT
  5
7F9
  8
M2-0
  6
CONTINUOUS
 62
     3
 10
15727.362676590001
 20
12305.716067470001
 30
0.0
 40
24.000000360000001
  1
７５
  0
TEXT
  5
7FA
  8
M2-0
  6
CONTINUOUS
 62
     3
 10
15622.362676590001
 20
12305.716067470001
 30
0.0
 40
24.000000360000001
  1
４５
  0
TEXT
  5
7FB
  8
M2-0
  6
CONTINUOUS
 62
     3
 10
15680.99263633
 20
12255.91606747
 30
0.0
 40
24.000000360000001
  1
４５
  0
TEXT
  5
7FC
  8
M2-0
  6
CONTINUOUS
 62
     3
 10
15911.37176606
 20
12498.191669919999
 30
0.0
 40
24.000000360000001
  1
７５
 50
90.0
  0
TEXT
  5
7FD
  8
M2-0
  6
CONTINUOUS
 62
     3
 10
15911.37176606
 20
12934.87456625999
 30
0.0
 40
24.000000360000001
  1
７５
 50
90.0
  0
TEXT
  5
7FE
  8
M2-0
  6
CONTINUOUS
 62
     3
 10
15911.37176606
 20
13010.175230739969
 30
0.0
 40
24.000000360000001
  1
８３．７
 50
90.0
  0
TEXT
  5
7FF
  8
M2-0
  6
CONTINUOUS
 62
     3
 10
15911.37176606
 20
12343.631604890001
 30
0.0
 40
24.000000360000001
  1
８３．７
 50
90.0
  0
TEXT
  5
800
  8
M2-0
  6
CONTINUOUS
 62
     3
 10
15100.048408889999
 20
12671.53311808999
 30
0.0
 40
24.000000360000001
  1
６７９．１
 50
90.0
  0
TEXT
  5
801
  8
M2-0
  6
CONTINUOUS
 62
     3
 10
15178.56839995
 20
12907.274566259999
 30
0.0
 40
24.000000360000001
  1
２０７．６
 50
90.0
  0
TEXT
  5
802
  8
M2-0
  6
CONTINUOUS
 62
     3
 10
15178.56839995
 20
12671.53311808999
 30
0.0
 40
24.000000360000001
  1
１３９．５
 50
90.0
  0
TEXT
  5
803
  8
M2-0
  6
CONTINUOUS
 62
     3
 10
15178.56839995
 20
12435.79166991999
 30
0.0
 40
24.000000360000001
  1
２０７．６
 50
90.0
  0
TEXT
  5
804
  8
M2-0
  6
CONTINUOUS
 62
     3
 10
15228.368399950001
 20
12807.02094853999
 30
0.0
 40
24.000000360000001
  1
６２．２
 50
90.0
  0
TEXT
  5
805
  8
M2-0
  6
CONTINUOUS
 62
     3
 10
15228.368399950001
 20
12598.629279909999
 30
0.0
 40
24.000000360000001
  1
６２．２
 50
90.0
  0
LINE
  5
806
  8
M2-0
  6
CONTINUOUS
 62
     3
 10
15554.862676590001
 20
12285.916067469991
 30
0.0
 11
15554.862676590001
 21
12430.591669920001
 31
0.0
  0
POLYLINE
  5
807
  8
M2-0
  6
CONTINUOUS
 62
     3
 66
     1
 10
0.0
 20
0.0
 30
0.0
  0
VERTEX
  5
A0B
  8
M2-0
  6
CONTINUOUS
 62
     3
 10
15615.373789200001
 20
12291.93378179
 30
0.0
  0
VERTEX
  5
A0C
  8
M2-0
  6
CONTINUOUS
 62
     3
 10
15629.862676590001
 20
12295.816067469999
 30
0.0
  0
VERTEX
  5
A0D
  8
M2-0
  6
CONTINUOUS
 62
     3
 10
15615.373789200001
 20
12299.69835314
 30
0.0
  0
SEQEND
  5
A0E
  8
M2-0
  6
CONTINUOUS
 62
     3
  0
LINE
  5
80C
  8
M2-0
  6
CONTINUOUS
 62
     3
 10
15554.862676590001
 20
12295.816067469999
 30
0.0
 11
15629.862676590001
 21
12295.816067469999
 31
0.0
  0
POLYLINE
  5
80D
  8
M2-0
  6
CONTINUOUS
 62
     3
 66
     1
 10
0.0
 20
0.0
 30
0.0
  0
VERTEX
  5
A0F
  8
M2-0
  6
CONTINUOUS
 62
     3
 10
15615.373789200001
 20
12291.93378179
 30
0.0
  0
VERTEX
  5
A10
  8
M2-0
  6
CONTINUOUS
 62
     3
 10
15629.862676590001
 20
12295.816067469999
 30
0.0
  0
VERTEX
  5
A11
  8
M2-0
  6
CONTINUOUS
 62
     3
 10
15615.373789200001
 20
12299.69835314
 30
0.0
  0
SEQEND
  5
A12
  8
M2-0
  6
CONTINUOUS
 62
     3
  0
POLYLINE
  5
812
  8
M2-0
  6
CONTINUOUS
 62
     3
 66
     1
 10
0.0
 20
0.0
 30
0.0
  0
VERTEX
  5
A13
  8
M2-0
  6
CONTINUOUS
 62
     3
 10
15569.351563980001
 20
12299.69835314
 30
0.0
  0
VERTEX
  5
A14
  8
M2-0
  6
CONTINUOUS
 62
     3
 10
15554.862676590001
 20
12295.816067469999
 30
0.0
  0
VERTEX
  5
A15
  8
M2-0
  6
CONTINUOUS
 62
     3
 10
15569.351563980001
 20
12291.93378179
 30
0.0
  0
SEQEND
  5
A16
  8
M2-0
  6
CONTINUOUS
 62
     3
  0
LINE
  5
817
  8
M2-0
  6
CONTINUOUS
 62
     3
 10
15794.862676590001
 20
12285.916067469991
 30
0.0
 11
15794.862676590001
 21
12430.591669920001
 31
0.0
  0
LINE
  5
818
  8
M2-0
  6
CONTINUOUS
 62
     3
 10
15719.862676590001
 20
12285.916067469991
 30
0.0
 11
15719.862676590001
 21
12430.591669920001
 31
0.0
  0
POLYLINE
  5
819
  8
M2-0
  6
CONTINUOUS
 62
     3
 66
     1
 10
0.0
 20
0.0
 30
0.0
  0
VERTEX
  5
A17
  8
M2-0
  6
CONTINUOUS
 62
     3
 10
15734.351563980001
 20
12299.69835314
 30
0.0
  0
VERTEX
  5
A18
  8
M2-0
  6
CONTINUOUS
 62
     3
 10
15719.862676590001
 20
12295.816067469999
 30
0.0
  0
VERTEX
  5
A19
  8
M2-0
  6
CONTINUOUS
 62
     3
 10
15734.351563980001
 20
12291.93378179
 30
0.0
  0
SEQEND
  5
A1A
  8
M2-0
  6
CONTINUOUS
 62
     3
  0
LINE
  5
81E
  8
M2-0
  6
CONTINUOUS
 62
     3
 10
15719.862676590001
 20
12295.816067469999
 30
0.0
 11
15794.862676590001
 21
12295.816067469999
 31
0.0
  0
POLYLINE
  5
81F
  8
M2-0
  6
CONTINUOUS
 62
     3
 66
     1
 10
0.0
 20
0.0
 30
0.0
  0
VERTEX
  5
A1B
  8
M2-0
  6
CONTINUOUS
 62
     3
 10
15780.373789200001
 20
12291.93378179
 30
0.0
  0
VERTEX
  5
A1C
  8
M2-0
  6
CONTINUOUS
 62
     3
 10
15794.862676590001
 20
12295.816067469999
 30
0.0
  0
VERTEX
  5
A1D
  8
M2-0
  6
CONTINUOUS
 62
     3
 10
15780.373789200001
 20
12299.69835314
 30
0.0
  0
SEQEND
  5
A1E
  8
M2-0
  6
CONTINUOUS
 62
     3
  0
POLYLINE
  5
824
  8
M2-0
  6
CONTINUOUS
 62
     3
 66
     1
 10
0.0
 20
0.0
 30
0.0
  0
VERTEX
  5
A1F
  8
M2-0
  6
CONTINUOUS
 62
     3
 10
15734.351563980001
 20
12299.69835314
 30
0.0
  0
VERTEX
  5
A20
  8
M2-0
  6
CONTINUOUS
 62
     3
 10
15719.862676590001
 20
12295.816067469999
 30
0.0
  0
VERTEX
  5
A21
  8
M2-0
  6
CONTINUOUS
 62
     3
 10
15734.351563980001
 20
12291.93378179
 30
0.0
  0
SEQEND
  5
A22
  8
M2-0
  6
CONTINUOUS
 62
     3
  0
LINE
  5
829
  8
M2-0
  6
CONTINUOUS
 62
     3
 10
15629.74374326
 20
12295.816067469999
 30
0.0
 11
15784.74374326
 21
12295.816067469999
 31
0.0
  0
POLYLINE
  5
82A
  8
M2-0
  6
CONTINUOUS
 62
     3
 66
     1
 10
0.0
 20
0.0
 30
0.0
  0
VERTEX
  5
A23
  8
M2-0
  6
CONTINUOUS
 62
     3
 10
15689.351563980001
 20
12299.69835314
 30
0.0
  0
VERTEX
  5
A24
  8
M2-0
  6
CONTINUOUS
 62
     3
 10
15674.862676590001
 20
12295.816067469999
 30
0.0
  0
VERTEX
  5
A25
  8
M2-0
  6
CONTINUOUS
 62
     3
 10
15689.351563980001
 20
12291.93378179
 30
0.0
  0
SEQEND
  5
A26
  8
M2-0
  6
CONTINUOUS
 62
     3
  0
POLYLINE
  5
82F
  8
M2-0
  6
CONTINUOUS
 62
     3
 66
     1
 10
0.0
 20
0.0
 30
0.0
  0
VERTEX
  5
A27
  8
M2-0
  6
CONTINUOUS
 62
     3
 10
15615.373789200001
 20
12291.93378179
 30
0.0
  0
VERTEX
  5
A28
  8
M2-0
  6
CONTINUOUS
 62
     3
 10
15629.862676590001
 20
12295.816067469999
 30
0.0
  0
VERTEX
  5
A29
  8
M2-0
  6
CONTINUOUS
 62
     3
 10
15615.373789200001
 20
12299.69835314
 30
0.0
  0
SEQEND
  5
A2A
  8
M2-0
  6
CONTINUOUS
 62
     3
  0
LINE
  5
834
  8
M2-0
  6
CONTINUOUS
 62
     3
 10
15704.862676590001
 20
12295.816067469999
 30
0.0
 11
15599.862676590001
 21
12295.816067469999
 31
0.0
  0
LINE
  5
835
  8
M2-0
  6
CONTINUOUS
 62
     3
 10
15629.862676590001
 20
12285.916067469991
 30
0.0
 11
15629.862676590001
 21
12430.591669920001
 31
0.0
  0
LINE
  5
836
  8
M2-0
  6
CONTINUOUS
 62
     3
 10
15674.862676590001
 20
12285.916067469991
 30
0.0
 11
15674.862676590001
 21
12386.89166992
 31
0.0
  0
POLYLINE
  5
837
  8
M2-0
  6
CONTINUOUS
 62
     3
 66
     1
 10
0.0
 20
0.0
 30
0.0
  0
VERTEX
  5
A2B
  8
M2-0
  6
CONTINUOUS
 62
     3
 10
15660.373789200001
 20
12291.93378179
 30
0.0
  0
VERTEX
  5
A2C
  8
M2-0
  6
CONTINUOUS
 62
     3
 10
15674.862676590001
 20
12295.816067469999
 30
0.0
  0
VERTEX
  5
A2D
  8
M2-0
  6
CONTINUOUS
 62
     3
 10
15660.373789200001
 20
12299.69835314
 30
0.0
  0
SEQEND
  5
A2E
  8
M2-0
  6
CONTINUOUS
 62
     3
  0
POLYLINE
  5
83C
  8
M2-0
  6
CONTINUOUS
 62
     3
 66
     1
 10
0.0
 20
0.0
 30
0.0
  0
VERTEX
  5
A2F
  8
M2-0
  6
CONTINUOUS
 62
     3
 10
15734.351563980001
 20
12299.69835314
 30
0.0
  0
VERTEX
  5
A30
  8
M2-0
  6
CONTINUOUS
 62
     3
 10
15719.862676590001
 20
12295.816067469999
 30
0.0
  0
VERTEX
  5
A31
  8
M2-0
  6
CONTINUOUS
 62
     3
 10
15734.351563980001
 20
12291.93378179
 30
0.0
  0
SEQEND
  5
A32
  8
M2-0
  6
CONTINUOUS
 62
     3
  0
LINE
  5
841
  8
M2-0
  6
CONTINUOUS
 62
     3
 10
15674.862676590001
 20
12285.916067469991
 30
0.0
 11
15674.862676590001
 21
12386.89166992
 31
0.0
  0
LINE
  5
842
  8
M2-0
  6
CONTINUOUS
 62
     3
 10
15644.862676590001
 20
12295.816067469999
 30
0.0
 11
15755.99263633
 21
12295.816067469999
 31
0.0
  0
POLYLINE
  5
843
  8
M2-0
  6
CONTINUOUS
 62
     3
 66
     1
 10
0.0
 20
0.0
 30
0.0
  0
VERTEX
  5
A33
  8
M2-0
  6
CONTINUOUS
 62
     3
 10
15925.154051740001
 20
12392.50278253
 30
0.0
  0
VERTEX
  5
A34
  8
M2-0
  6
CONTINUOUS
 62
     3
 10
15921.271766059979
 20
12406.99166992
 30
0.0
  0
VERTEX
  5
A35
  8
M2-0
  6
CONTINUOUS
 62
     3
 10
15917.38948037999
 20
12392.50278253
 30
0.0
  0
SEQEND
  5
A36
  8
M2-0
  6
CONTINUOUS
 62
     3
  0
POLYLINE
  5
848
  8
M2-0
  6
CONTINUOUS
 62
     3
 66
     1
 10
0.0
 20
0.0
 30
0.0
  0
VERTEX
  5
A37
  8
M2-0
  6
CONTINUOUS
 62
     3
 10
15917.38948037999
 20
12505.18055732
 30
0.0
  0
VERTEX
  5
A38
  8
M2-0
  6
CONTINUOUS
 62
     3
 10
15921.271766059979
 20
12490.69166991999
 30
0.0
  0
VERTEX
  5
A39
  8
M2-0
  6
CONTINUOUS
 62
     3
 10
15925.154051740001
 20
12505.18055732
 30
0.0
  0
SEQEND
  5
A3A
  8
M2-0
  6
CONTINUOUS
 62
     3
  0
LINE
  5
84D
  8
M2-0
  6
CONTINUOUS
 62
     3
 10
15931.171766060001
 20
12490.69166991999
 30
0.0
 11
15854.962676589999
 21
12490.69166991999
 31
0.0
  0
POLYLINE
  5
84E
  8
M2-0
  6
CONTINUOUS
 62
     3
 66
     1
 10
0.0
 20
0.0
 30
0.0
  0
VERTEX
  5
A3B
  8
M2-0
  6
CONTINUOUS
 62
     3
 10
15917.38948037999
 20
12505.18055732
 30
0.0
  0
VERTEX
  5
A3C
  8
M2-0
  6
CONTINUOUS
 62
     3
 10
15921.271766059979
 20
12490.69166991999
 30
0.0
  0
VERTEX
  5
A3D
  8
M2-0
  6
CONTINUOUS
 62
     3
 10
15925.154051740001
 20
12505.18055732
 30
0.0
  0
SEQEND
  5
A3E
  8
M2-0
  6
CONTINUOUS
 62
     3
  0
POLYLINE
  5
853
  8
M2-0
  6
CONTINUOUS
 62
     3
 66
     1
 10
0.0
 20
0.0
 30
0.0
  0
VERTEX
  5
A3F
  8
M2-0
  6
CONTINUOUS
 62
     3
 10
15925.154051740001
 20
12551.20278252999
 30
0.0
  0
VERTEX
  5
A40
  8
M2-0
  6
CONTINUOUS
 62
     3
 10
15921.271766059979
 20
12565.691669919999
 30
0.0
  0
VERTEX
  5
A41
  8
M2-0
  6
CONTINUOUS
 62
     3
 10
15917.38948037999
 20
12551.20278252999
 30
0.0
  0
SEQEND
  5
A42
  8
M2-0
  6
CONTINUOUS
 62
     3
  0
LINE
  5
858
  8
M2-0
  6
CONTINUOUS
 62
     3
 10
15921.271766059979
 20
12490.69166991999
 30
0.0
 11
15921.271766059979
 21
12565.691669919999
 31
0.0
  0
LINE
  5
859
  8
M2-0
  6
CONTINUOUS
 62
     3
 10
15931.171766060001
 20
12565.691669919999
 30
0.0
 11
15854.962676589999
 21
12565.691669919999
 31
0.0
  0
POLYLINE
  5
85A
  8
M2-0
  6
CONTINUOUS
 62
     3
 66
     1
 10
0.0
 20
0.0
 30
0.0
  0
VERTEX
  5
A43
  8
M2-0
  6
CONTINUOUS
 62
     3
 10
15917.38948037999
 20
13100.56345365
 30
0.0
  0
VERTEX
  5
A44
  8
M2-0
  6
CONTINUOUS
 62
     3
 10
15921.271766059979
 20
13086.074566259969
 30
0.0
  0
VERTEX
  5
A45
  8
M2-0
  6
CONTINUOUS
 62
     3
 10
15925.154051740001
 20
13100.56345365
 30
0.0
  0
SEQEND
  5
A46
  8
M2-0
  6
CONTINUOUS
 62
     3
  0
POLYLINE
  5
85F
  8
M2-0
  6
CONTINUOUS
 62
     3
 66
     1
 10
0.0
 20
0.0
 30
0.0
  0
VERTEX
  5
A47
  8
M2-0
  6
CONTINUOUS
 62
     3
 10
15925.154051740001
 20
12987.885678860001
 30
0.0
  0
VERTEX
  5
A48
  8
M2-0
  6
CONTINUOUS
 62
     3
 10
15921.271766059979
 20
13002.37456625999
 30
0.0
  0
VERTEX
  5
A49
  8
M2-0
  6
CONTINUOUS
 62
     3
 10
15917.38948037999
 20
12987.885678860001
 30
0.0
  0
SEQEND
  5
A4A
  8
M2-0
  6
CONTINUOUS
 62
     3
  0
LINE
  5
864
  8
M2-0
  6
CONTINUOUS
 62
     3
 10
15931.171766060001
 20
13002.37456625999
 30
0.0
 11
15854.962676589999
 21
13002.37456625999
 31
0.0
  0
POLYLINE
  5
865
  8
M2-0
  6
CONTINUOUS
 62
     3
 66
     1
 10
0.0
 20
0.0
 30
0.0
  0
VERTEX
  5
A4B
  8
M2-0
  6
CONTINUOUS
 62
     3
 10
15917.38948037999
 20
12941.86345364999
 30
0.0
  0
VERTEX
  5
A4C
  8
M2-0
  6
CONTINUOUS
 62
     3
 10
15921.271766059979
 20
12927.37456625999
 30
0.0
  0
VERTEX
  5
A4D
  8
M2-0
  6
CONTINUOUS
 62
     3
 10
15925.154051740001
 20
12941.86345364999
 30
0.0
  0
SEQEND
  5
A4E
  8
M2-0
  6
CONTINUOUS
 62
     3
  0
POLYLINE
  5
86A
  8
M2-0
  6
CONTINUOUS
 62
     3
 66
     1
 10
0.0
 20
0.0
 30
0.0
  0
VERTEX
  5
A4F
  8
M2-0
  6
CONTINUOUS
 62
     3
 10
15925.154051740001
 20
12987.885678860001
 30
0.0
  0
VERTEX
  5
A50
  8
M2-0
  6
CONTINUOUS
 62
     3
 10
15921.271766059979
 20
13002.37456625999
 30
0.0
  0
VERTEX
  5
A51
  8
M2-0
  6
CONTINUOUS
 62
     3
 10
15917.38948037999
 20
12987.885678860001
 30
0.0
  0
SEQEND
  5
A52
  8
M2-0
  6
CONTINUOUS
 62
     3
  0
LINE
  5
86F
  8
M2-0
  6
CONTINUOUS
 62
     3
 10
15921.271766059979
 20
12927.37456625999
 30
0.0
 11
15921.271766059979
 21
13002.37456625999
 31
0.0
  0
LINE
  5
870
  8
M2-0
  6
CONTINUOUS
 62
     3
 10
15931.171766060001
 20
13002.37456625999
 30
0.0
 11
15854.962676589999
 21
13002.37456625999
 31
0.0
  0
LINE
  5
871
  8
M2-0
  6
CONTINUOUS
 62
     3
 10
15931.171766060001
 20
12927.37456625999
 30
0.0
 11
15854.962676589999
 21
12927.37456625999
 31
0.0
  0
LINE
  5
872
  8
M2-0
  6
CONTINUOUS
 62
     3
 10
15921.271766059979
 20
13145.17523074
 30
0.0
 11
15921.271766059979
 21
12972.374566259999
 31
0.0
  0
LINE
  5
873
  8
M2-0
  6
CONTINUOUS
 62
     3
 10
15921.271766059979
 20
12328.631604890001
 30
0.0
 11
15921.271766059979
 21
12520.691669919979
 31
0.0
  0
POLYLINE
  5
874
  8
M2-0
  6
CONTINUOUS
 62
     3
 66
     1
 10
0.0
 20
0.0
 30
0.0
  0
VERTEX
  5
A53
  8
M2-0
  6
CONTINUOUS
 62
     3
 10
15113.830694559991
 20
13071.585678859999
 30
0.0
  0
VERTEX
  5
A54
  8
M2-0
  6
CONTINUOUS
 62
     3
 10
15109.948408890001
 20
13086.074566259969
 30
0.0
  0
VERTEX
  5
A55
  8
M2-0
  6
CONTINUOUS
 62
     3
 10
15106.066123209999
 20
13071.585678859999
 30
0.0
  0
SEQEND
  5
A56
  8
M2-0
  6
CONTINUOUS
 62
     3
  0
POLYLINE
  5
879
  8
M2-0
  6
CONTINUOUS
 62
     3
 66
     1
 10
0.0
 20
0.0
 30
0.0
  0
VERTEX
  5
A57
  8
M2-0
  6
CONTINUOUS
 62
     3
 10
15106.066123209999
 20
12421.48055731999
 30
0.0
  0
VERTEX
  5
A58
  8
M2-0
  6
CONTINUOUS
 62
     3
 10
15109.948408890001
 20
12406.99166992
 30
0.0
  0
VERTEX
  5
A59
  8
M2-0
  6
CONTINUOUS
 62
     3
 10
15113.830694559991
 20
12421.48055731999
 30
0.0
  0
SEQEND
  5
A5A
  8
M2-0
  6
CONTINUOUS
 62
     3
  0
LINE
  5
87E
  8
M2-0
  6
CONTINUOUS
 62
     3
 10
15109.948408890001
 20
13086.074566259969
 30
0.0
 11
15109.948408890001
 21
12406.99166992
 31
0.0
  0
LINE
  5
87F
  8
M2-0
  6
CONTINUOUS
 62
     3
 10
15100.048408889999
 20
12406.99166992
 30
0.0
 11
15254.76267659
 21
12406.99166992
 31
0.0
  0
LINE
  5
880
  8
M2-0
  6
CONTINUOUS
 62
     3
 10
15100.048408889999
 20
13086.074566259969
 30
0.0
 11
15254.76267659
 21
13086.074566259969
 31
0.0
  0
POLYLINE
  5
881
  8
M2-0
  6
CONTINUOUS
 62
     3
 66
     1
 10
0.0
 20
0.0
 30
0.0
  0
VERTEX
  5
A5B
  8
M2-0
  6
CONTINUOUS
 62
     3
 10
15192.350685629999
 20
13071.585678859999
 30
0.0
  0
VERTEX
  5
A5C
  8
M2-0
  6
CONTINUOUS
 62
     3
 10
15188.468399949979
 20
13086.074566259969
 30
0.0
  0
VERTEX
  5
A5D
  8
M2-0
  6
CONTINUOUS
 62
     3
 10
15184.58611428
 20
13071.585678859999
 30
0.0
  0
SEQEND
  5
A5E
  8
M2-0
  6
CONTINUOUS
 62
     3
  0
POLYLINE
  5
886
  8
M2-0
  6
CONTINUOUS
 62
     3
 66
     1
 10
0.0
 20
0.0
 30
0.0
  0
VERTEX
  5
A5F
  8
M2-0
  6
CONTINUOUS
 62
     3
 10
15184.58611428
 20
12892.96345365
 30
0.0
  0
VERTEX
  5
A60
  8
M2-0
  6
CONTINUOUS
 62
     3
 10
15188.468399949979
 20
12878.47456626
 30
0.0
  0
VERTEX
  5
A61
  8
M2-0
  6
CONTINUOUS
 62
     3
 10
15192.350685629999
 20
12892.96345365
 30
0.0
  0
SEQEND
  5
A62
  8
M2-0
  6
CONTINUOUS
 62
     3
  0
LINE
  5
88B
  8
M2-0
  6
CONTINUOUS
 62
     3
 10
15188.468399949979
 20
13086.074566259969
 30
0.0
 11
15188.468399949979
 21
12878.47456626
 31
0.0
  0
LINE
  5
88C
  8
M2-0
  6
CONTINUOUS
 62
     3
 10
15178.56839995
 20
12878.47456626
 30
0.0
 11
15254.76267659
 21
12878.47456626
 31
0.0
  0
LINE
  5
88D
  8
M2-0
  6
CONTINUOUS
 62
     3
 10
15178.56839995
 20
13086.074566259969
 30
0.0
 11
15254.76267659
 21
13086.074566259969
 31
0.0
  0
POLYLINE
  5
88E
  8
M2-0
  6
CONTINUOUS
 62
     3
 66
     1
 10
0.0
 20
0.0
 30
0.0
  0
VERTEX
  5
A63
  8
M2-0
  6
CONTINUOUS
 62
     3
 10
15184.58611428
 20
12892.96345365
 30
0.0
  0
VERTEX
  5
A64
  8
M2-0
  6
CONTINUOUS
 62
     3
 10
15188.468399949979
 20
12878.47456626
 30
0.0
  0
VERTEX
  5
A65
  8
M2-0
  6
CONTINUOUS
 62
     3
 10
15192.350685629999
 20
12892.96345365
 30
0.0
  0
SEQEND
  5
A66
  8
M2-0
  6
CONTINUOUS
 62
     3
  0
LINE
  5
893
  8
M2-0
  6
CONTINUOUS
 62
     3
 10
15178.56839995
 20
12816.27456625999
 30
0.0
 11
15254.76267659
 21
12816.27456625999
 31
0.0
  0
LINE
  5
894
  8
M2-0
  6
CONTINUOUS
 62
     3
 10
15178.56839995
 20
12878.47456626
 30
0.0
 11
15254.76267659
 21
12878.47456626
 31
0.0
  0
LINE
  5
895
  8
M2-0
  6
CONTINUOUS
 62
     3
 10
15188.468399949979
 20
12846.274566259979
 30
0.0
 11
15188.468399949979
 21
12646.79166992
 31
0.0
  0
LINE
  5
896
  8
M2-0
  6
CONTINUOUS
 62
     3
 10
15178.56839995
 20
12676.79166992
 30
0.0
 11
15254.76267659
 21
12676.79166992
 31
0.0
  0
LINE
  5
897
  8
M2-0
  6
CONTINUOUS
 62
     3
 10
15178.56839995
 20
12816.27456625999
 30
0.0
 11
15254.76267659
 21
12816.27456625999
 31
0.0
  0
POLYLINE
  5
898
  8
M2-0
  6
CONTINUOUS
 62
     3
 66
     1
 10
0.0
 20
0.0
 30
0.0
  0
VERTEX
  5
A67
  8
M2-0
  6
CONTINUOUS
 62
     3
 10
15192.350685629999
 20
12600.102782530001
 30
0.0
  0
VERTEX
  5
A68
  8
M2-0
  6
CONTINUOUS
 62
     3
 10
15188.468399949979
 20
12614.591669920001
 30
0.0
  0
VERTEX
  5
A69
  8
M2-0
  6
CONTINUOUS
 62
     3
 10
15184.58611428
 20
12600.102782530001
 30
0.0
  0
SEQEND
  5
A6A
  8
M2-0
  6
CONTINUOUS
 62
     3
  0
LINE
  5
89D
  8
M2-0
  6
CONTINUOUS
 62
     3
 10
15178.56839995
 20
12614.591669920001
 30
0.0
 11
15254.76267659
 21
12614.591669920001
 31
0.0
  0
LINE
  5
89E
  8
M2-0
  6
CONTINUOUS
 62
     3
 10
15178.56839995
 20
12676.79166992
 30
0.0
 11
15254.76267659
 21
12676.79166992
 31
0.0
  0
POLYLINE
  5
89F
  8
M2-0
  6
CONTINUOUS
 62
     3
 66
     1
 10
0.0
 20
0.0
 30
0.0
  0
VERTEX
  5
A6B
  8
M2-0
  6
CONTINUOUS
 62
     3
 10
15192.350685629999
 20
12600.102782530001
 30
0.0
  0
VERTEX
  5
A6C
  8
M2-0
  6
CONTINUOUS
 62
     3
 10
15188.468399949979
 20
12614.591669920001
 30
0.0
  0
VERTEX
  5
A6D
  8
M2-0
  6
CONTINUOUS
 62
     3
 10
15184.58611428
 20
12600.102782530001
 30
0.0
  0
SEQEND
  5
A6E
  8
M2-0
  6
CONTINUOUS
 62
     3
  0
POLYLINE
  5
8A4
  8
M2-0
  6
CONTINUOUS
 62
     3
 66
     1
 10
0.0
 20
0.0
 30
0.0
  0
VERTEX
  5
A6F
  8
M2-0
  6
CONTINUOUS
 62
     3
 10
15184.58611428
 20
12421.48055731999
 30
0.0
  0
VERTEX
  5
A70
  8
M2-0
  6
CONTINUOUS
 62
     3
 10
15188.468399949979
 20
12406.99166992
 30
0.0
  0
VERTEX
  5
A71
  8
M2-0
  6
CONTINUOUS
 62
     3
 10
15192.350685629999
 20
12421.48055731999
 30
0.0
  0
SEQEND
  5
A72
  8
M2-0
  6
CONTINUOUS
 62
     3
  0
LINE
  5
8A9
  8
M2-0
  6
CONTINUOUS
 62
     3
 10
15188.468399949979
 20
12614.591669920001
 30
0.0
 11
15188.468399949979
 21
12406.99166992
 31
0.0
  0
LINE
  5
8AA
  8
M2-0
  6
CONTINUOUS
 62
     3
 10
15178.56839995
 20
12406.99166992
 30
0.0
 11
15254.76267659
 21
12406.99166992
 31
0.0
  0
LINE
  5
8AB
  8
M2-0
  6
CONTINUOUS
 62
     3
 10
15178.56839995
 20
12614.591669920001
 30
0.0
 11
15254.76267659
 21
12614.591669920001
 31
0.0
  0
POLYLINE
  5
8AC
  8
M2-0
  6
CONTINUOUS
 62
     3
 66
     1
 10
0.0
 20
0.0
 30
0.0
  0
VERTEX
  5
A73
  8
M2-0
  6
CONTINUOUS
 62
     3
 10
15189.34084452
 20
12813.87845681
 30
0.0
  0
VERTEX
  5
A74
  8
M2-0
  6
CONTINUOUS
 62
     3
 10
15190.77961666
 20
12815.19717249
 30
0.0
  0
VERTEX
  5
A75
  8
M2-0
  6
CONTINUOUS
 62
     3
 10
15190.86450939998
 20
12817.14701083
 30
0.0
  0
VERTEX
  5
A76
  8
M2-0
  6
CONTINUOUS
 62
     3
 10
15189.545793720001
 20
12818.58578297
 30
0.0
  0
VERTEX
  5
A77
  8
M2-0
  6
CONTINUOUS
 62
     3
 10
15187.595955379969
 20
12818.67067569999
 30
0.0
  0
VERTEX
  5
A78
  8
M2-0
  6
CONTINUOUS
 62
     3
 10
15186.15718324
 20
12817.35196002
 30
0.0
  0
VERTEX
  5
A79
  8
M2-0
  6
CONTINUOUS
 62
     3
 10
15186.07229050999
 20
12815.40212167999
 30
0.0
  0
VERTEX
  5
A7A
  8
M2-0
  6
CONTINUOUS
 62
     3
 10
15187.391006190001
 20
12813.96334955
 30
0.0
  0
VERTEX
  5
A7B
  8
M2-0
  6
CONTINUOUS
 62
     3
 10
15189.34084452
 20
12813.87845681
 30
0.0
  0
SEQEND
  5
A7C
  8
M2-0
  6
CONTINUOUS
 62
     3
  0
POLYLINE
  5
8B7
  8
M2-0
  6
CONTINUOUS
 62
     3
 66
     1
 10
0.0
 20
0.0
 30
0.0
  0
VERTEX
  5
A7D
  8
M2-0
  6
CONTINUOUS
 62
     3
 10
15189.34084452
 20
12813.87845681
 30
0.0
  0
VERTEX
  5
A7E
  8
M2-0
  6
CONTINUOUS
 62
     3
 10
15190.77961666
 20
12815.19717249
 30
0.0
  0
VERTEX
  5
A7F
  8
M2-0
  6
CONTINUOUS
 62
     3
 10
15190.86450939998
 20
12817.14701083
 30
0.0
  0
VERTEX
  5
A80
  8
M2-0
  6
CONTINUOUS
 62
     3
 10
15189.545793720001
 20
12818.58578297
 30
0.0
  0
VERTEX
  5
A81
  8
M2-0
  6
CONTINUOUS
 62
     3
 10
15187.595955379969
 20
12818.67067569999
 30
0.0
  0
VERTEX
  5
A82
  8
M2-0
  6
CONTINUOUS
 62
     3
 10
15186.15718324
 20
12817.35196002
 30
0.0
  0
VERTEX
  5
A83
  8
M2-0
  6
CONTINUOUS
 62
     3
 10
15186.07229050999
 20
12815.40212167999
 30
0.0
  0
VERTEX
  5
A84
  8
M2-0
  6
CONTINUOUS
 62
     3
 10
15187.391006190001
 20
12813.96334955
 30
0.0
  0
VERTEX
  5
A85
  8
M2-0
  6
CONTINUOUS
 62
     3
 10
15189.34084452
 20
12813.87845681
 30
0.0
  0
SEQEND
  5
A86
  8
M2-0
  6
CONTINUOUS
 62
     3
  0
POLYLINE
  5
8C2
  8
M2-0
  6
CONTINUOUS
 62
     3
 66
     1
 10
0.0
 20
0.0
 30
0.0
  0
VERTEX
  5
A87
  8
M2-0
  6
CONTINUOUS
 62
     3
 10
15189.278710489991
 20
12674.37384097
 30
0.0
  0
VERTEX
  5
A88
  8
M2-0
  6
CONTINUOUS
 62
     3
 10
15190.75103927999
 20
12675.654982749969
 30
0.0
  0
VERTEX
  5
A89
  8
M2-0
  6
CONTINUOUS
 62
     3
 10
15190.886228900001
 20
12677.60198046
 30
0.0
  0
VERTEX
  5
A8A
  8
M2-0
  6
CONTINUOUS
 62
     3
 10
15189.60508712
 20
12679.074309240001
 30
0.0
  0
VERTEX
  5
A8B
  8
M2-0
  6
CONTINUOUS
 62
     3
 10
15187.658089410001
 20
12679.209498869979
 30
0.0
  0
VERTEX
  5
A8C
  8
M2-0
  6
CONTINUOUS
 62
     3
 10
15186.185760629991
 20
12677.928357090001
 30
0.0
  0
VERTEX
  5
A8D
  8
M2-0
  6
CONTINUOUS
 62
     3
 10
15186.050571
 20
12675.981359380001
 30
0.0
  0
VERTEX
  5
A8E
  8
M2-0
  6
CONTINUOUS
 62
     3
 10
15187.33171278
 20
12674.5090306
 30
0.0
  0
VERTEX
  5
A8F
  8
M2-0
  6
CONTINUOUS
 62
     3
 10
15189.278710489991
 20
12674.37384097
 30
0.0
  0
SEQEND
  5
A90
  8
M2-0
  6
CONTINUOUS
 62
     3
  0
POLYLINE
  5
8CD
  8
M2-0
  6
CONTINUOUS
 62
     3
 66
     1
 10
0.0
 20
0.0
 30
0.0
  0
VERTEX
  5
A91
  8
M2-0
  6
CONTINUOUS
 62
     3
 10
15189.278710489991
 20
12674.37384097
 30
0.0
  0
VERTEX
  5
A92
  8
M2-0
  6
CONTINUOUS
 62
     3
 10
15190.75103927999
 20
12675.654982749969
 30
0.0
  0
VERTEX
  5
A93
  8
M2-0
  6
CONTINUOUS
 62
     3
 10
15190.886228900001
 20
12677.60198046
 30
0.0
  0
VERTEX
  5
A94
  8
M2-0
  6
CONTINUOUS
 62
     3
 10
15189.60508712
 20
12679.074309240001
 30
0.0
  0
VERTEX
  5
A95
  8
M2-0
  6
CONTINUOUS
 62
     3
 10
15187.658089410001
 20
12679.209498869979
 30
0.0
  0
VERTEX
  5
A96
  8
M2-0
  6
CONTINUOUS
 62
     3
 10
15186.185760629991
 20
12677.928357090001
 30
0.0
  0
VERTEX
  5
A97
  8
M2-0
  6
CONTINUOUS
 62
     3
 10
15186.050571
 20
12675.981359380001
 30
0.0
  0
VERTEX
  5
A98
  8
M2-0
  6
CONTINUOUS
 62
     3
 10
15187.33171278
 20
12674.5090306
 30
0.0
  0
VERTEX
  5
A99
  8
M2-0
  6
CONTINUOUS
 62
     3
 10
15189.278710489991
 20
12674.37384097
 30
0.0
  0
SEQEND
  5
A9A
  8
M2-0
  6
CONTINUOUS
 62
     3
  0
LINE
  5
8D8
  8
M2-0
  6
CONTINUOUS
 62
     3
 10
15188.468399949979
 20
12792.02094853999
 30
0.0
 11
15188.468399949979
 21
12942.020948539999
 31
0.0
  0
LINE
  5
8D9
  8
M2-0
  6
CONTINUOUS
 62
     3
 10
15188.468399949979
 20
12583.629279909999
 30
0.0
 11
15188.468399949979
 21
12733.62927990999
 31
0.0
  0
TEXT
  5
8DA
  8
M2-0
  6
CONTINUOUS
 62
     3
 10
16159.10278392
 20
12701.533118089999
 30
0.0
 40
24.000000360000001
  1
３２０
 50
90.0
  0
TEXT
  5
8DB
  8
M2-0
  6
CONTINUOUS
 62
     3
 10
16389.622113829999
 20
13110.146850200001
 30
0.0
 40
24.000000360000001
  1
２４５．９
 50
347.47119228999992
  0
TEXT
  5
8DC
  8
M2-0
  6
CONTINUOUS
 62
     3
 10
16230.99679951
 20
13094.74436784
 30
0.0
 40
24.000000360000001
  1
１．３
 50
347.47119228999992
  0
TEXT
  5
8DD
  8
M2-0
  6
CONTINUOUS
 62
     3
 10
16410.086353729981
 20
12996.76574813998
 30
0.0
 40
24.000000360000001
  1
７５
 50
347.47119228999992
  0
TEXT
  5
8DE
  8
M2-0
  6
CONTINUOUS
 62
     3
 10
16261.977442290001
 20
13029.67883957
 30
0.0
 40
24.000000360000001
  1
８３．７
 50
347.47119228999992
  0
TEXT
  5
8DF
  8
M2-0
  6
CONTINUOUS
 62
     3
 10
16482.16838246
 20
12980.747519529999
 30
0.0
 40
24.000000360000001
  1
８５．９
 50
347.47119228999992
  0
TEXT
  5
8E0
  8
M2-0
  6
CONTINUOUS
 62
     3
 10
16619.427368969991
 20
12997.62078917
 30
0.0
 40
24.000000360000001
  1
６２．２
 50
308.73559614999999
  0
ARC
  5
8E1
  8
M2-0
  6
CONTINUOUS
 62
     3
 10
16656.971012580001
 20
12950.81828043
 30
0.0
 40
45.0
 50
350.54591104000002
 51
86.925281249999998
  0
TEXT
  5
8E2
  8
M2-0
  6
CONTINUOUS
 62
     3
 10
16361.361131850001
 20
13064.94930289
 30
0.0
 40
24.000000360000001
  1
２０７．６
 50
347.47119228999992
  0
TEXT
  5
8E3
  8
M2-0
  6
CONTINUOUS
 62
     3
 10
16684.457453110001
 20
12671.53311808999
 30
0.0
 40
24.000000360000001
  1
１３９．５
 50
90.0
  0
TEXT
  5
8E4
  8
M2-0
  6
CONTINUOUS
 62
     3
 10
16631.880989730002
 20
12671.53311808999
 30
0.0
 40
24.000000360000001
  1
２１３．３
 50
90.0
  0
TEXT
  5
8E5
  8
M2-0
  6
CONTINUOUS
 62
     3
 10
16603.799347380002
 20
12507.9818022
 30
0.0
 40
24.000000360000001
  1
６２．２
 50
51.264403850000001
  0
ARC
  5
8E6
  8
M2-0
  6
CONTINUOUS
 62
     3
 10
16641.342990990001
 20
12554.784310929999
 30
0.0
 40
45.0
 50
93.074718749999988
 51
189.45408895999981
  0
TEXT
  5
8E7
  8
M2-0
  6
CONTINUOUS
 62
     3
 10
16357.01496242
 20
12447.67469571999
 30
0.0
 40
24.000000360000001
  1
２０７．６
 50
12.528807710000001
  0
TEXT
  5
8E8
  8
M2-0
  6
CONTINUOUS
 62
     3
 10
16370.278229019999
 20
12396.19118874
 30
0.0
 40
24.000000360000001
  1
２４０
  0
TEXT
  5
8E9
  8
M2-0
  6
CONTINUOUS
 62
     3
 10
16445.07642338
 20
12722.238208520001
 30
0.0
 40
24.000000360000001
  1
Ｒ４０
 50
323.1699752699999
  0
TEXT
  5
8EA
  8
M2-0
  6
CONTINUOUS
 62
     3
 10
16425.105284919991
 20
12780.90596686999
 30
0.0
 40
24.000000360000001
  1
Ｒ４０
 50
36.642097159999999
  0
TEXT
  5
8EB
  8
M2-0
  6
CONTINUOUS
 62
     3
 10
16543.984478580001
 20
12775.50691222999
 30
0.0
 40
24.000000360000001
  1
６
  0
POLYLINE
  5
8EC
  8
M2-0
  6
CONTINUOUS
 62
     3
 66
     1
 10
0.0
 20
0.0
 30
0.0
  0
VERTEX
  5
A9B
  8
M2-0
  6
CONTINUOUS
 62
     3
 10
16172.88506959
 20
12892.04423069
 30
0.0
  0
VERTEX
  5
A9C
  8
M2-0
  6
CONTINUOUS
 62
     3
 10
16169.00278391999
 20
12906.53311808999
 30
0.0
  0
VERTEX
  5
A9D
  8
M2-0
  6
CONTINUOUS
 62
     3
 10
16165.12049824
 20
12892.04423069
 30
0.0
  0
SEQEND
  5
A9E
  8
M2-0
  6
CONTINUOUS
 62
     3
  0
POLYLINE
  5
8F1
  8
M2-0
  6
CONTINUOUS
 62
     3
 66
     1
 10
0.0
 20
0.0
 30
0.0
  0
VERTEX
  5
A9F
  8
M2-0
  6
CONTINUOUS
 62
     3
 10
16165.12049824
 20
12601.022005479999
 30
0.0
  0
VERTEX
  5
AA0
  8
M2-0
  6
CONTINUOUS
 62
     3
 10
16169.00278391999
 20
12586.53311808999
 30
0.0
  0
VERTEX
  5
AA1
  8
M2-0
  6
CONTINUOUS
 62
     3
 10
16172.88506959
 20
12601.022005479999
 30
0.0
  0
SEQEND
  5
AA2
  8
M2-0
  6
CONTINUOUS
 62
     3
  0
LINE
  5
8F6
  8
M2-0
  6
CONTINUOUS
 62
     3
 10
16169.00278391999
 20
12906.53311808999
 30
0.0
 11
16169.00278391999
 21
12586.53311808999
 31
0.0
  0
LINE
  5
8F7
  8
M2-0
  6
CONTINUOUS
 62
     3
 10
16159.10278392
 20
12586.53311808999
 30
0.0
 11
16275.178229020001
 21
12586.53311808999
 31
0.0
  0
LINE
  5
8F8
  8
M2-0
  6
CONTINUOUS
 62
     3
 10
16159.10278392
 20
12906.53311808999
 30
0.0
 11
16275.178229020001
 21
12906.53311808999
 31
0.0
  0
POLYLINE
  5
8F9
  8
M2-0
  6
CONTINUOUS
 62
     3
 66
     1
 10
0.0
 20
0.0
 30
0.0
  0
VERTEX
  5
AA3
  8
M2-0
  6
CONTINUOUS
 62
     3
 10
16355.67458220998
 20
13111.52623669999
 30
0.0
  0
VERTEX
  5
AA4
  8
M2-0
  6
CONTINUOUS
 62
     3
 10
16340.688531809979
 20
13110.87948062999
 30
0.0
  0
VERTEX
  5
AA5
  8
M2-0
  6
CONTINUOUS
 62
     3
 10
16353.990210190001
 20
13103.94656262
 30
0.0
  0
SEQEND
  5
AA6
  8
M2-0
  6
CONTINUOUS
 62
     3
  0
POLYLINE
  5
8FE
  8
M2-0
  6
CONTINUOUS
 62
     3
 66
     1
 10
0.0
 20
0.0
 30
0.0
  0
VERTEX
  5
AA7
  8
M2-0
  6
CONTINUOUS
 62
     3
 10
16565.70248141
 20
13056.89939122999
 30
0.0
  0
VERTEX
  5
AA8
  8
M2-0
  6
CONTINUOUS
 62
     3
 10
16580.688531809981
 20
13057.5461473
 30
0.0
  0
VERTEX
  5
AA9
  8
M2-0
  6
CONTINUOUS
 62
     3
 10
16567.386853430002
 20
13064.47906532
 30
0.0
  0
SEQEND
  5
AAA
  8
M2-0
  6
CONTINUOUS
 62
     3
  0
LINE
  5
903
  8
M2-0
  6
CONTINUOUS
 62
     3
 10
16340.688531809979
 20
13110.87948062999
 30
0.0
 11
16580.688531809981
 21
13057.5461473
 31
0.0
  0
LINE
  5
904
  8
M2-0
  6
CONTINUOUS
 62
     3
 10
16582.836143339991
 20
13067.21039919999
 30
0.0
 11
16539.638531219982
 21
12872.82114466
 31
0.0
  0
LINE
  5
905
  8
M2-0
  6
CONTINUOUS
 62
     3
 10
16342.83614334
 20
13120.543732530001
 30
0.0
 11
16299.638531219991
 21
12926.154478
 31
0.0
  0
POLYLINE
  5
906
  8
M2-0
  6
CONTINUOUS
 62
     3
 66
     1
 10
0.0
 20
0.0
 30
0.0
  0
VERTEX
  5
AAB
  8
M2-0
  6
CONTINUOUS
 62
     3
 10
16314.97605859
 20
13061.963821879999
 30
0.0
  0
VERTEX
  5
AAC
  8
M2-0
  6
CONTINUOUS
 62
     3
 10
16329.96210898999
 20
13062.610577949999
 30
0.0
  0
VERTEX
  5
AAD
  8
M2-0
  6
CONTINUOUS
 62
     3
 10
16316.66043061
 20
13069.543495960001
 30
0.0
  0
SEQEND
  5
AAE
  8
M2-0
  6
CONTINUOUS
 62
     3
  0
POLYLINE
  5
90B
  8
M2-0
  6
CONTINUOUS
 62
     3
 66
     1
 10
0.0
 20
0.0
 30
0.0
  0
VERTEX
  5
AAF
  8
M2-0
  6
CONTINUOUS
 62
     3
 10
16346.24974214
 20
13062.968093400001
 30
0.0
  0
VERTEX
  5
AB0
  8
M2-0
  6
CONTINUOUS
 62
     3
 10
16331.26369174
 20
13062.32133733999
 30
0.0
  0
VERTEX
  5
AB1
  8
M2-0
  6
CONTINUOUS
 62
     3
 10
16344.565370120001
 20
13055.38841931999
 30
0.0
  0
SEQEND
  5
AB2
  8
M2-0
  6
CONTINUOUS
 62
     3
  0
LINE
  5
910
  8
M2-0
  6
CONTINUOUS
 62
     3
 10
16333.411303270001
 20
13071.98558923
 30
0.0
 11
16300.94011397
 21
12925.86523739
 31
0.0
  0
LINE
  5
911
  8
M2-0
  6
CONTINUOUS
 62
     3
 10
16214.206382079999
 20
13088.33407282
 30
0.0
 11
16360.54930353999
 21
13055.813423600001
 31
0.0
  0
POLYLINE
  5
912
  8
M2-0
  6
CONTINUOUS
 62
     3
 66
     1
 10
0.0
 20
0.0
 30
0.0
  0
VERTEX
  5
AB3
  8
M2-0
  6
CONTINUOUS
 62
     3
 10
16303.956971479991
 20
13006.231566910001
 30
0.0
  0
VERTEX
  5
AB4
  8
M2-0
  6
CONTINUOUS
 62
     3
 10
16318.943021880001
 20
13006.878322979999
 30
0.0
  0
VERTEX
  5
AB5
  8
M2-0
  6
CONTINUOUS
 62
     3
 10
16305.641343499999
 20
13013.81124099999
 30
0.0
  0
SEQEND
  5
AB6
  8
M2-0
  6
CONTINUOUS
 62
     3
  0
POLYLINE
  5
917
  8
M2-0
  6
CONTINUOUS
 62
     3
 66
     1
 10
0.0
 20
0.0
 30
0.0
  0
VERTEX
  5
AB7
  8
M2-0
  6
CONTINUOUS
 62
     3
 10
16415.603389650001
 20
12989.37523073999
 30
0.0
  0
VERTEX
  5
AB8
  8
M2-0
  6
CONTINUOUS
 62
     3
 10
16400.617339249991
 20
12988.72847468
 30
0.0
  0
VERTEX
  5
AB9
  8
M2-0
  6
CONTINUOUS
 62
     3
 10
16413.91901763
 20
12981.795556659999
 30
0.0
  0
SEQEND
  5
ABA
  8
M2-0
  6
CONTINUOUS
 62
     3
  0
LINE
  5
91C
  8
M2-0
  6
CONTINUOUS
 62
     3
 10
16402.764950780002
 20
12998.39272657
 30
0.0
 11
16393.460954229991
 21
12956.52474209
 31
0.0
  0
POLYLINE
  5
91D
  8
M2-0
  6
CONTINUOUS
 62
     3
 66
     1
 10
0.0
 20
0.0
 30
0.0
  0
VERTEX
  5
ABB
  8
M2-0
  6
CONTINUOUS
 62
     3
 10
16415.603389650001
 20
12989.37523073999
 30
0.0
  0
VERTEX
  5
ABC
  8
M2-0
  6
CONTINUOUS
 62
     3
 10
16400.617339249991
 20
12988.72847468
 30
0.0
  0
VERTEX
  5
ABD
  8
M2-0
  6
CONTINUOUS
 62
     3
 10
16413.91901763
 20
12981.795556659999
 30
0.0
  0
SEQEND
  5
ABE
  8
M2-0
  6
CONTINUOUS
 62
     3
  0
POLYLINE
  5
922
  8
M2-0
  6
CONTINUOUS
 62
     3
 66
     1
 10
0.0
 20
0.0
 30
0.0
  0
VERTEX
  5
ABF
  8
M2-0
  6
CONTINUOUS
 62
     3
 10
16458.845318359981
 20
12971.81193426999
 30
0.0
  0
VERTEX
  5
AC0
  8
M2-0
  6
CONTINUOUS
 62
     3
 10
16473.831368759991
 20
12972.45869034
 30
0.0
  0
VERTEX
  5
AC1
  8
M2-0
  6
CONTINUOUS
 62
     3
 10
16460.529690380001
 20
12979.39160836
 30
0.0
  0
SEQEND
  5
AC2
  8
M2-0
  6
CONTINUOUS
 62
     3
  0
LINE
  5
927
  8
M2-0
  6
CONTINUOUS
 62
     3
 10
16400.617339249991
 20
12988.72847468
 30
0.0
 11
16473.831368759991
 21
12972.45869034
 31
0.0
  0
LINE
  5
928
  8
M2-0
  6
CONTINUOUS
 62
     3
 10
16475.978980290001
 20
12982.12294223
 30
0.0
 11
16466.674983739991
 21
12940.25495776
 31
0.0
  0
POLYLINE
  5
929
  8
M2-0
  6
CONTINUOUS
 62
     3
 66
     1
 10
0.0
 20
0.0
 30
0.0
  0
VERTEX
  5
AC3
  8
M2-0
  6
CONTINUOUS
 62
     3
 10
16458.845318359981
 20
12971.81193426999
 30
0.0
  0
VERTEX
  5
AC4
  8
M2-0
  6
CONTINUOUS
 62
     3
 10
16473.831368759991
 20
12972.45869034
 30
0.0
  0
VERTEX
  5
AC5
  8
M2-0
  6
CONTINUOUS
 62
     3
 10
16460.529690380001
 20
12979.39160836
 30
0.0
  0
SEQEND
  5
AC6
  8
M2-0
  6
CONTINUOUS
 62
     3
  0
POLYLINE
  5
92E
  8
M2-0
  6
CONTINUOUS
 62
     3
 66
     1
 10
0.0
 20
0.0
 30
0.0
  0
VERTEX
  5
AC7
  8
M2-0
  6
CONTINUOUS
 62
     3
 10
16572.627489530001
 20
12954.480986320001
 30
0.0
  0
VERTEX
  5
AC8
  8
M2-0
  6
CONTINUOUS
 62
     3
 10
16557.641439129999
 20
12953.83423025999
 30
0.0
  0
VERTEX
  5
AC9
  8
M2-0
  6
CONTINUOUS
 62
     3
 10
16570.943117509989
 20
12946.90131223999
 30
0.0
  0
SEQEND
  5
ACA
  8
M2-0
  6
CONTINUOUS
 62
     3
  0
LINE
  5
933
  8
M2-0
  6
CONTINUOUS
 62
     3
 10
16245.187024860001
 20
13023.26854454
 30
0.0
 11
16429.90295105
 21
12982.220560940001
 31
0.0
  0
LINE
  5
934
  8
M2-0
  6
CONTINUOUS
 62
     3
 10
16444.54575696
 20
12978.96660406999
 30
0.0
 11
16611.806024050002
 21
12941.79765583
 31
0.0
  0
POLYLINE
  5
935
  8
M2-0
  6
CONTINUOUS
 62
     3
 66
     1
 10
0.0
 20
0.0
 30
0.0
  0
VERTEX
  5
ACB
  8
M2-0
  6
CONTINUOUS
 62
     3
 10
16689.966715009999
 20
12830.642882839969
 30
0.0
  0
VERTEX
  5
ACC
  8
M2-0
  6
CONTINUOUS
 62
     3
 10
16694.357453109998
 20
12816.29989086
 30
0.0
  0
VERTEX
  5
ACD
  8
M2-0
  6
CONTINUOUS
 62
     3
 10
16697.726458370002
 20
12830.91665533
 30
0.0
  0
SEQEND
  5
ACE
  8
M2-0
  6
CONTINUOUS
 62
     3
  0
POLYLINE
  5
93A
  8
M2-0
  6
CONTINUOUS
 62
     3
 66
     1
 10
0.0
 20
0.0
 30
0.0
  0
VERTEX
  5
ACF
  8
M2-0
  6
CONTINUOUS
 62
     3
 10
16548.765695180002
 20
13016.613533659969
 30
0.0
  0
VERTEX
  5
AD0
  8
M2-0
  6
CONTINUOUS
 62
     3
 10
16533.766158990002
 20
13016.495575729999
 30
0.0
  0
VERTEX
  5
AD1
  8
M2-0
  6
CONTINUOUS
 62
     3
 10
16546.81511734
 20
13009.0979622
 30
0.0
  0
SEQEND
  5
AD2
  8
M2-0
  6
CONTINUOUS
 62
     3
  0
ARC
  5
93F
  8
M2-0
  6
CONTINUOUS
 62
     3
 10
16489.278229020001
 20
12816.29989086
 30
0.0
 40
205.07922408999991
 50
0.0
 51
77.471192290000005
  0
LINE
  5
940
  8
M2-0
  6
CONTINUOUS
 62
     3
 10
16704.25745311
 20
12816.29989086
 30
0.0
 11
16555.37822902
 21
12816.29989086
 31
0.0
  0
LINE
  5
941
  8
M2-0
  6
CONTINUOUS
 62
     3
 10
16535.913770520001
 20
13026.15982762999
 30
0.0
 11
16503.617332279991
 21
12880.825855540001
 31
0.0
  0
POLYLINE
  5
942
  8
M2-0
  6
CONTINUOUS
 62
     3
 66
     1
 10
0.0
 20
0.0
 30
0.0
  0
VERTEX
  5
AD3
  8
M2-0
  6
CONTINUOUS
 62
     3
 10
16346.07499108
 20
13062.181713649999
 30
0.0
  0
VERTEX
  5
AD4
  8
M2-0
  6
CONTINUOUS
 62
     3
 10
16331.08894068
 20
13061.534957579979
 30
0.0
  0
VERTEX
  5
AD5
  8
M2-0
  6
CONTINUOUS
 62
     3
 10
16344.390619059999
 20
13054.602039560001
 30
0.0
  0
SEQEND
  5
AD6
  8
M2-0
  6
CONTINUOUS
 62
     3
  0
POLYLINE
  5
947
  8
M2-0
  6
CONTINUOUS
 62
     3
 66
     1
 10
0.0
 20
0.0
 30
0.0
  0
VERTEX
  5
AD7
  8
M2-0
  6
CONTINUOUS
 62
     3
 10
16518.780108589999
 20
13015.84881967
 30
0.0
  0
VERTEX
  5
AD8
  8
M2-0
  6
CONTINUOUS
 62
     3
 10
16533.766158990002
 20
13016.495575729999
 30
0.0
  0
VERTEX
  5
AD9
  8
M2-0
  6
CONTINUOUS
 62
     3
 10
16520.46448061
 20
13023.42849375
 30
0.0
  0
SEQEND
  5
ADA
  8
M2-0
  6
CONTINUOUS
 62
     3
  0
LINE
  5
94C
  8
M2-0
  6
CONTINUOUS
 62
     3
 10
16331.08894068
 20
13061.534957579979
 30
0.0
 11
16533.766158990002
 21
13016.495575729999
 31
0.0
  0
POLYLINE
  5
94D
  8
M2-0
  6
CONTINUOUS
 62
     3
 66
     1
 10
0.0
 20
0.0
 30
0.0
  0
VERTEX
  5
ADB
  8
M2-0
  6
CONTINUOUS
 62
     3
 10
16690.475167439981
 20
12830.788778259999
 30
0.0
  0
VERTEX
  5
ADC
  8
M2-0
  6
CONTINUOUS
 62
     3
 10
16694.357453109998
 20
12816.29989086
 30
0.0
  0
VERTEX
  5
ADD
  8
M2-0
  6
CONTINUOUS
 62
     3
 10
16698.239738789991
 20
12830.788778259999
 30
0.0
  0
SEQEND
  5
ADE
  8
M2-0
  6
CONTINUOUS
 62
     3
  0
POLYLINE
  5
952
  8
M2-0
  6
CONTINUOUS
 62
     3
 66
     1
 10
0.0
 20
0.0
 30
0.0
  0
VERTEX
  5
ADF
  8
M2-0
  6
CONTINUOUS
 62
     3
 10
16698.239738789991
 20
12662.27745791999
 30
0.0
  0
VERTEX
  5
AE0
  8
M2-0
  6
CONTINUOUS
 62
     3
 10
16694.357453109998
 20
12676.76634530999
 30
0.0
  0
VERTEX
  5
AE1
  8
M2-0
  6
CONTINUOUS
 62
     3
 10
16690.475167439981
 20
12662.27745791999
 30
0.0
  0
SEQEND
  5
AE2
  8
M2-0
  6
CONTINUOUS
 62
     3
  0
LINE
  5
957
  8
M2-0
  6
CONTINUOUS
 62
     3
 10
16694.357453109998
 20
12846.29989086
 30
0.0
 11
16694.357453109998
 21
12646.766345309999
 31
0.0
  0
LINE
  5
958
  8
M2-0
  6
CONTINUOUS
 62
     3
 10
16704.25745311
 20
12676.76634530999
 30
0.0
 11
16555.37822902
 21
12676.76634530999
 31
0.0
  0
POLYLINE
  5
959
  8
M2-0
  6
CONTINUOUS
 62
     3
 66
     1
 10
0.0
 20
0.0
 30
0.0
  0
VERTEX
  5
AE3
  8
M2-0
  6
CONTINUOUS
 62
     3
 10
16645.663275409999
 20
12838.710897360001
 30
0.0
  0
VERTEX
  5
AE4
  8
M2-0
  6
CONTINUOUS
 62
     3
 10
16641.780989729981
 20
12853.19978476
 30
0.0
  0
VERTEX
  5
AE5
  8
M2-0
  6
CONTINUOUS
 62
     3
 10
16637.89870406
 20
12838.710897360001
 30
0.0
  0
SEQEND
  5
AE6
  8
M2-0
  6
CONTINUOUS
 62
     3
  0
POLYLINE
  5
95E
  8
M2-0
  6
CONTINUOUS
 62
     3
 66
     1
 10
0.0
 20
0.0
 30
0.0
  0
VERTEX
  5
AE7
  8
M2-0
  6
CONTINUOUS
 62
     3
 10
16637.89870406
 20
12654.35533882
 30
0.0
  0
VERTEX
  5
AE8
  8
M2-0
  6
CONTINUOUS
 62
     3
 10
16641.780989729981
 20
12639.866451420001
 30
0.0
  0
VERTEX
  5
AE9
  8
M2-0
  6
CONTINUOUS
 62
     3
 10
16645.663275409999
 20
12654.35533882
 30
0.0
  0
SEQEND
  5
AEA
  8
M2-0
  6
CONTINUOUS
 62
     3
  0
LINE
  5
963
  8
M2-0
  6
CONTINUOUS
 62
     3
 10
16641.780989729981
 20
12853.19978476
 30
0.0
 11
16641.780989729981
 21
12639.866451420001
 31
0.0
  0
LINE
  5
964
  8
M2-0
  6
CONTINUOUS
 62
     3
 10
16651.680989730001
 20
12639.866451420001
 30
0.0
 11
16555.37822902
 21
12639.866451420001
 31
0.0
  0
LINE
  5
965
  8
M2-0
  6
CONTINUOUS
 62
     3
 10
16651.680989730001
 20
12853.19978476
 30
0.0
 11
16555.37822902
 21
12853.19978476
 31
0.0
  0
POLYLINE
  5
966
  8
M2-0
  6
CONTINUOUS
 62
     3
 66
     1
 10
0.0
 20
0.0
 30
0.0
  0
VERTEX
  5
AEB
  8
M2-0
  6
CONTINUOUS
 62
     3
 10
16546.763872849991
 20
12484.19805846999
 30
0.0
  0
VERTEX
  5
AEC
  8
M2-0
  6
CONTINUOUS
 62
     3
 10
16533.715212629992
 20
12476.799919089999
 30
0.0
  0
VERTEX
  5
AED
  8
M2-0
  6
CONTINUOUS
 62
     3
 10
16548.714753560002
 20
12476.68256562
 30
0.0
  0
SEQEND
  5
AEE
  8
M2-0
  6
CONTINUOUS
 62
     3
  0
POLYLINE
  5
96B
  8
M2-0
  6
CONTINUOUS
 62
     3
 66
     1
 10
0.0
 20
0.0
 30
0.0
  0
VERTEX
  5
AEF
  8
M2-0
  6
CONTINUOUS
 62
     3
 10
16697.491018190001
 20
12662.149445090001
 30
0.0
  0
VERTEX
  5
AF0
  8
M2-0
  6
CONTINUOUS
 62
     3
 10
16694.122601970001
 20
12676.76634530999
 30
0.0
  0
VERTEX
  5
AF1
  8
M2-0
  6
CONTINUOUS
 62
     3
 10
16689.73128588
 20
12662.423530280001
 30
0.0
  0
SEQEND
  5
AF2
  8
M2-0
  6
CONTINUOUS
 62
     3
  0
ARC
  5
970
  8
M2-0
  6
CONTINUOUS
 62
     3
 10
16489.278229020001
 20
12676.76634530999
 30
0.0
 40
204.84437295000001
 50
282.52880771000002
 51
0.0
  0
LINE
  5
971
  8
M2-0
  6
CONTINUOUS
 62
     3
 10
16535.862824160002
 20
12467.13566718999
 30
0.0
 11
16503.617332279991
 21
12612.24038064
 31
0.0
  0
LINE
  5
972
  8
M2-0
  6
CONTINUOUS
 62
     3
 10
16704.022601969991
 20
12676.76634530999
 30
0.0
 11
16555.37822902
 21
12676.76634530999
 31
0.0
  0
POLYLINE
  5
973
  8
M2-0
  6
CONTINUOUS
 62
     3
 66
     1
 10
0.0
 20
0.0
 30
0.0
  0
VERTEX
  5
AF3
  8
M2-0
  6
CONTINUOUS
 62
     3
 10
16520.41353424
 20
12469.867001070001
 30
0.0
  0
VERTEX
  5
AF4
  8
M2-0
  6
CONTINUOUS
 62
     3
 10
16533.715212629992
 20
12476.799919089999
 30
0.0
  0
VERTEX
  5
AF5
  8
M2-0
  6
CONTINUOUS
 62
     3
 10
16518.72916223
 20
12477.44667515
 30
0.0
  0
SEQEND
  5
AF6
  8
M2-0
  6
CONTINUOUS
 62
     3
  0
POLYLINE
  5
978
  8
M2-0
  6
CONTINUOUS
 62
     3
 66
     1
 10
0.0
 20
0.0
 30
0.0
  0
VERTEX
  5
AF7
  8
M2-0
  6
CONTINUOUS
 62
     3
 10
16344.3396727
 20
12438.693455259991
 30
0.0
  0
VERTEX
  5
AF8
  8
M2-0
  6
CONTINUOUS
 62
     3
 10
16331.037994309991
 20
12431.76053723999
 30
0.0
  0
VERTEX
  5
AF9
  8
M2-0
  6
CONTINUOUS
 62
     3
 10
16346.02404471
 20
12431.11378118
 30
0.0
  0
SEQEND
  5
AFA
  8
M2-0
  6
CONTINUOUS
 62
     3
  0
LINE
  5
97D
  8
M2-0
  6
CONTINUOUS
 62
     3
 10
16533.715212629992
 20
12476.799919089999
 30
0.0
 11
16331.037994309991
 21
12431.76053723999
 31
0.0
  0
LINE
  5
97E
  8
M2-0
  6
CONTINUOUS
 62
     3
 10
16333.185605849991
 20
12422.09628535
 30
0.0
 11
16300.94011397
 21
12567.20099879
 31
0.0
  0
POLYLINE
  5
97F
  8
M2-0
  6
CONTINUOUS
 62
     3
 66
     1
 10
0.0
 20
0.0
 30
0.0
  0
VERTEX
  5
AFB
  8
M2-0
  6
CONTINUOUS
 62
     3
 10
16520.789341629981
 20
12382.408903060001
 30
0.0
  0
VERTEX
  5
AFC
  8
M2-0
  6
CONTINUOUS
 62
     3
 10
16535.278229020001
 20
12386.291188740001
 30
0.0
  0
VERTEX
  5
AFD
  8
M2-0
  6
CONTINUOUS
 62
     3
 10
16520.789341629981
 20
12390.173474409999
 30
0.0
  0
SEQEND
  5
AFE
  8
M2-0
  6
CONTINUOUS
 62
     3
  0
POLYLINE
  5
984
  8
M2-0
  6
CONTINUOUS
 62
     3
 66
     1
 10
0.0
 20
0.0
 30
0.0
  0
VERTEX
  5
AFF
  8
M2-0
  6
CONTINUOUS
 62
     3
 10
16309.76711641998
 20
12390.173474409999
 30
0.0
  0
VERTEX
  5
B00
  8
M2-0
  6
CONTINUOUS
 62
     3
 10
16295.278229019999
 20
12386.291188740001
 30
0.0
  0
VERTEX
  5
B01
  8
M2-0
  6
CONTINUOUS
 62
     3
 10
16309.76711641998
 20
12382.408903060001
 30
0.0
  0
SEQEND
  5
B02
  8
M2-0
  6
CONTINUOUS
 62
     3
  0
LINE
  5
989
  8
M2-0
  6
CONTINUOUS
 62
     3
 10
16535.278229020001
 20
12386.291188740001
 30
0.0
 11
16295.278229019999
 21
12386.291188740001
 31
0.0
  0
LINE
  5
98A
  8
M2-0
  6
CONTINUOUS
 62
     3
 10
16295.278229019999
 20
12376.391188740001
 30
0.0
 11
16295.278229019999
 21
12566.433118090001
 31
0.0
  0
LINE
  5
98B
  8
M2-0
  6
CONTINUOUS
 62
     3
 10
16535.278229020001
 20
12376.391188740001
 30
0.0
 11
16535.278229020001
 21
12656.666345310001
 31
0.0
  0
POLYLINE
  5
98C
  8
M2-0
  6
CONTINUOUS
 62
     3
 66
     1
 10
0.0
 20
0.0
 30
0.0
  0
VERTEX
  5
B03
  8
M2-0
  6
CONTINUOUS
 62
     3
 10
16512.0648196
 20
12828.41022935
 30
0.0
  0
VERTEX
  5
B04
  8
M2-0
  6
CONTINUOUS
 62
     3
 10
16521.37339669
 20
12840.17247372
 30
0.0
  0
VERTEX
  5
B05
  8
M2-0
  6
CONTINUOUS
 62
     3
 10
16507.430810270002
 20
12834.64035983999
 30
0.0
  0
SEQEND
  5
B06
  8
M2-0
  6
CONTINUOUS
 62
     3
  0
POLYLINE
  5
991
  8
M2-0
  6
CONTINUOUS
 62
     3
 66
     1
 10
0.0
 20
0.0
 30
0.0
  0
VERTEX
  5
B07
  8
M2-0
  6
CONTINUOUS
 62
     3
 10
16507.370556829999
 20
12658.36643545
 30
0.0
  0
VERTEX
  5
B08
  8
M2-0
  6
CONTINUOUS
 62
     3
 10
16521.294923199999
 20
12652.788620359999
 30
0.0
  0
VERTEX
  5
B09
  8
M2-0
  6
CONTINUOUS
 62
     3
 10
16512.024975740002
 20
12664.58133311
 30
0.0
  0
SEQEND
  5
B0A
  8
M2-0
  6
CONTINUOUS
 62
     3
  0
LINE
  5
996
  8
M2-0
  6
CONTINUOUS
 62
     3
 10
16427.135676139991
 20
12723.305723569991
 30
0.0
 11
16521.294923199999
 21
12652.788620359999
 31
0.0
  0
LINE
  5
997
  8
M2-0
  6
CONTINUOUS
 62
     3
 10
16418.9780613
 20
12764.010194300001
 30
0.0
 11
16521.37339669
 21
12840.17247372
 31
0.0
  0
POLYLINE
  5
998
  8
M2-0
  6
CONTINUOUS
 62
     3
 66
     1
 10
0.0
 20
0.0
 30
0.0
  0
VERTEX
  5
B0B
  8
M2-0
  6
CONTINUOUS
 62
     3
 10
16514.789341629999
 20
12761.724626560001
 30
0.0
  0
VERTEX
  5
B0C
  8
M2-0
  6
CONTINUOUS
 62
     3
 10
16529.278229020001
 20
12765.60691223
 30
0.0
  0
VERTEX
  5
B0D
  8
M2-0
  6
CONTINUOUS
 62
     3
 10
16514.789341629999
 20
12769.489197909999
 30
0.0
  0
SEQEND
  5
B0E
  8
M2-0
  6
CONTINUOUS
 62
     3
  0
POLYLINE
  5
99D
  8
M2-0
  6
CONTINUOUS
 62
     3
 66
     1
 10
0.0
 20
0.0
 30
0.0
  0
VERTEX
  5
B0F
  8
M2-0
  6
CONTINUOUS
 62
     3
 10
16549.767116419978
 20
12769.489197909999
 30
0.0
  0
VERTEX
  5
B10
  8
M2-0
  6
CONTINUOUS
 62
     3
 10
16535.278229020001
 20
12765.60691223
 30
0.0
  0
VERTEX
  5
B11
  8
M2-0
  6
CONTINUOUS
 62
     3
 10
16549.767116419978
 20
12761.724626560001
 30
0.0
  0
SEQEND
  5
B12
  8
M2-0
  6
CONTINUOUS
 62
     3
  0
LINE
  5
9A2
  8
M2-0
  6
CONTINUOUS
 62
     3
 10
16499.278229020001
 20
12765.60691223
 30
0.0
 11
16588.984478580001
 21
12765.60691223
 31
0.0
  0
LINE
  5
9A3
  8
M2-0
  6
CENTER
 62
     4
 10
15374.862676590001
 20
12406.99166992
 30
0.0
 11
15374.862676590001
 21
13086.074566259969
 31
0.0
  0
LINE
  5
9A4
  8
M2-0
  6
CENTER
 62
     4
 10
15674.862676590001
 20
12406.99166992
 30
0.0
 11
15674.862676590001
 21
13086.074566259969
 31
0.0
  0
POINT
  5
9A5
  8
M2-0
  6
CENTER
 62
     4
 10
15674.862676590001
 20
12746.53311808999
 30
0.0
  0
LINE
  5
9A6
  8
M2-0
  6
CENTER
 62
     4
 10
15974.862676590001
 20
12406.99166992
 30
0.0
 11
15974.862676590001
 21
13086.074566259969
 31
0.0
  0
LINE
  5
9A7
  8
M2-0
  6
CENTER
 62
     4
 10
15834.862676590001
 20
12887.37456625999
 30
0.0
 11
15834.862676590001
 21
13042.37456625999
 31
0.0
  0
LINE
  5
9A8
  8
M2-0
  6
CENTER
 62
     4
 10
15514.862676590001
 20
12887.37456625999
 30
0.0
 11
15514.862676590001
 21
13042.37456625999
 31
0.0
  0
LINE
  5
9A9
  8
M2-0
  6
CENTER
 62
     4
 10
15514.862676590001
 20
12450.69166991999
 30
0.0
 11
15514.862676590001
 21
12605.691669919999
 31
0.0
  0
LINE
  5
9AA
  8
M2-0
  6
CENTER
 62
     4
 10
15834.862676590001
 20
12450.69166991999
 30
0.0
 11
15834.862676590001
 21
12605.691669919999
 31
0.0
  0
LINE
  5
9AB
  8
M2-0
  6
CENTER
 62
     4
 10
15514.862676590001
 20
12605.691669919999
 30
0.0
 11
15834.862676590001
 21
12605.691669919999
 31
0.0
  0
LINE
  5
9AC
  8
M2-0
  6
CENTER
 62
     4
 10
15514.862676590001
 20
12450.69166991999
 30
0.0
 11
15834.862676590001
 21
12450.69166991999
 31
0.0
  0
LINE
  5
9AD
  8
M2-0
  6
CENTER
 62
     4
 10
15514.862676590001
 20
12887.37456625999
 30
0.0
 11
15669.862676590001
 21
12887.37456625999
 31
0.0
  0
LINE
  5
9AE
  8
M2-0
  6
CENTER
 62
     4
 10
15679.862676590001
 20
12887.37456625999
 30
0.0
 11
15834.862676590001
 21
12887.37456625999
 31
0.0
  0
LINE
  5
9AF
  8
M2-0
  6
CENTER
 62
     4
 10
15514.862676590001
 20
13042.37456625999
 30
0.0
 11
15669.862676590001
 21
13042.37456625999
 31
0.0
  0
LINE
  5
9B0
  8
M2-0
  6
CENTER
 62
     4
 10
15679.862676590001
 20
13042.37456625999
 30
0.0
 11
15834.862676590001
 21
13042.37456625999
 31
0.0
  0
LINE
  5
9B1
  8
M2-0
  6
CENTER
 62
     4
 10
16389.100652029982
 20
12936.90338218
 30
0.0
 11
16366.1060235
 21
12833.42755379998
 31
0.0
  0
LINE
  5
9B2
  8
M2-0
  6
CENTER
 62
     4
 10
16462.31468154
 20
12920.63359784999
 30
0.0
 11
16439.32005301
 21
12817.157769470001
 31
0.0
  0
LINE
  5
9B3
  8
M2-0
  6
CENTER
 62
     4
 10
16389.100652029982
 20
12556.162853989999
 30
0.0
 11
16366.1060235
 21
12659.63868237
 31
0.0
  0
LINE
  5
9B4
  8
M2-0
  6
CENTER
 62
     4
 10
16462.31468154
 20
12572.432638329999
 30
0.0
 11
16439.32005301
 21
12675.908466709991
 31
0.0
  0
LINE
  5
9B5
  8
M2-0
  6
CENTER
 62
     4
 10
16529.278229020001
 20
12676.76634530999
 30
0.0
 11
16529.278229020001
 21
12816.29989086
 31
0.0
  0
ARC
  5
9B6
  8
M2-0
  6
CENTER
 62
     4
 10
16489.278229020001
 20
12676.76634530999
 30
0.0
 40
40.0
 50
282.52880771000002
 51
0.0
  0
LINE
  5
9B7
  8
M2-0
  6
CENTER
 62
     4
 10
16295.278229019999
 20
12592.67948106
 30
0.0
 11
16497.955447330001
 21
12637.71886291
 31
0.0
  0
LINE
  5
9B8
  8
M2-0
  6
CENTER
 62
     4
 10
16295.278229019999
 20
12586.53311808999
 30
0.0
 11
16295.278229019999
 21
12906.53311808999
 31
0.0
  0
LINE
  5
9B9
  8
M2-0
  6
CENTER
 62
     4
 10
16295.278229019999
 20
12746.53311808999
 30
0.0
 11
16535.278229020001
 21
12746.53311808999
 31
0.0
  0
LINE
  5
9BA
  8
M2-0
  6
CENTER
 62
     4
 10
16295.278229019999
 20
12900.38675512
 30
0.0
 11
16497.955447330001
 21
12855.34737327
 31
0.0
  0
ARC
  5
9BB
  8
M2-0
  6
CENTER
 62
     4
 10
16489.278229020001
 20
12816.29989086
 30
0.0
 40
40.0
 50
0.0
 51
77.471192290000005
  0
LINE
  5
9BC
  8
M2-0
  6
CONTINUOUS
 62
     2
 10
15744.862676590001
 20
12721.533118089999
 30
0.0
 11
15744.862676590001
 21
12771.53311808999
 31
0.0
  0
LINE
  5
9BD
  8
M2-0
  6
CONTINUOUS
 62
     2
 10
15604.862676590001
 20
12721.533118089999
 30
0.0
 11
15604.862676590001
 21
12771.53311808999
 31
0.0
  0
LINE
  5
9BE
  8
M2-0
  6
CONTINUOUS
 62
     2
 10
15377.862676590001
 20
12406.99166992
 30
0.0
 11
15377.862676590001
 21
13086.074566259969
 31
0.0
  0
LINE
  5
9BF
  8
M2-0
  6
CONTINUOUS
 62
     2
 10
15371.862676590001
 20
12406.99166992
 30
0.0
 11
15371.862676590001
 21
13086.074566259969
 31
0.0
  0
LINE
  5
9C0
  8
M2-0
  6
CONTINUOUS
 62
     2
 10
15719.862676590001
 20
12887.37456625999
 30
0.0
 11
15719.862676590001
 21
13042.37456625999
 31
0.0
  0
LINE
  5
9C1
  8
M2-0
  6
CONTINUOUS
 62
     2
 10
15794.862676590001
 20
12887.37456625999
 30
0.0
 11
15794.862676590001
 21
13042.37456625999
 31
0.0
  0
LINE
  5
9C2
  8
M2-0
  6
CONTINUOUS
 62
     2
 10
15554.862676590001
 20
12887.37456625999
 30
0.0
 11
15554.862676590001
 21
13042.37456625999
 31
0.0
  0
LINE
  5
9C3
  8
M2-0
  6
CONTINUOUS
 62
     2
 10
15629.862676590001
 20
12887.37456625999
 30
0.0
 11
15629.862676590001
 21
13042.37456625999
 31
0.0
  0
LINE
  5
9C4
  8
M2-0
  6
CONTINUOUS
 62
     2
 10
15554.862676590001
 20
12450.69166991999
 30
0.0
 11
15554.862676590001
 21
12605.691669919999
 31
0.0
  0
LINE
  5
9C5
  8
M2-0
  6
CONTINUOUS
 62
     2
 10
15629.862676590001
 20
12450.69166991999
 30
0.0
 11
15629.862676590001
 21
12605.691669919999
 31
0.0
  0
LINE
  5
9C6
  8
M2-0
  6
CONTINUOUS
 62
     2
 10
15719.862676590001
 20
12450.69166991999
 30
0.0
 11
15719.862676590001
 21
12605.691669919999
 31
0.0
  0
LINE
  5
9C7
  8
M2-0
  6
CONTINUOUS
 62
     2
 10
15794.862676590001
 20
12450.69166991999
 30
0.0
 11
15794.862676590001
 21
12605.691669919999
 31
0.0
  0
LINE
  5
9C8
  8
M2-0
  6
CONTINUOUS
 62
     2
 10
15274.862676590001
 20
12614.591669920001
 30
0.0
 11
15669.862676590001
 21
12614.591669920001
 31
0.0
  0
LINE
  5
9C9
  8
M2-0
  6
CONTINUOUS
 62
     2
 10
15274.862676590001
 20
12676.79166992
 30
0.0
 11
15669.862676590001
 21
12676.79166992
 31
0.0
  0
LINE
  5
9CA
  8
M2-0
  6
CONTINUOUS
 62
     2
 10
15274.862676590001
 20
12746.53311808999
 30
0.0
 11
15669.862676590001
 21
12746.53311808999
 31
0.0
  0
LINE
  5
9CB
  8
M2-0
  6
CONTINUOUS
 62
     2
 10
15274.862676590001
 20
12816.27456625999
 30
0.0
 11
15669.862676590001
 21
12816.27456625999
 31
0.0
  0
LINE
  5
9CC
  8
M2-0
  6
CONTINUOUS
 62
     2
 10
15274.862676590001
 20
12878.47456626
 30
0.0
 11
15669.862676590001
 21
12878.47456626
 31
0.0
  0
LINE
  5
9CD
  8
M2-0
  6
CONTINUOUS
 62
     2
 10
15514.862676590001
 20
12927.37456625999
 30
0.0
 11
15669.862676590001
 21
12927.37456625999
 31
0.0
  0
LINE
  5
9CE
  8
M2-0
  6
CONTINUOUS
 62
     2
 10
15679.862676590001
 20
12927.37456625999
 30
0.0
 11
15834.862676590001
 21
12927.37456625999
 31
0.0
  0
LINE
  5
9CF
  8
M2-0
  6
CONTINUOUS
 62
     2
 10
15514.862676590001
 20
13002.37456625999
 30
0.0
 11
15669.862676590001
 21
13002.37456625999
 31
0.0
  0
LINE
  5
9D0
  8
M2-0
  6
CONTINUOUS
 62
     2
 10
15679.862676590001
 20
13002.37456625999
 30
0.0
 11
15834.862676590001
 21
13002.37456625999
 31
0.0
  0
LINE
  5
9D1
  8
M2-0
  6
CONTINUOUS
 62
     2
 10
15514.862676590001
 20
12565.691669919999
 30
0.0
 11
15669.862676590001
 21
12565.691669919999
 31
0.0
  0
LINE
  5
9D2
  8
M2-0
  6
CONTINUOUS
 62
     2
 10
15679.862676590001
 20
12565.691669919999
 30
0.0
 11
15834.862676590001
 21
12565.691669919999
 31
0.0
  0
LINE
  5
9D3
  8
M2-0
  6
CONTINUOUS
 62
     2
 10
15514.862676590001
 20
12490.69166991999
 30
0.0
 11
15669.862676590001
 21
12490.69166991999
 31
0.0
  0
LINE
  5
9D4
  8
M2-0
  6
CONTINUOUS
 62
     2
 10
15679.862676590001
 20
12490.69166991999
 30
0.0
 11
15834.862676590001
 21
12490.69166991999
 31
0.0
  0
LINE
  5
9D5
  8
M2-0
  6
CONTINUOUS
 62
     2
 10
15977.862676590001
 20
12406.99166992
 30
0.0
 11
15977.862676590001
 21
13086.074566259969
 31
0.0
  0
LINE
  5
9D6
  8
M2-0
  6
CONTINUOUS
 62
     2
 10
15971.862676590001
 20
12406.99166992
 30
0.0
 11
15971.862676590001
 21
13086.074566259969
 31
0.0
  0
LINE
  5
9D7
  8
M2-0
  6
CONTINUOUS
 62
     2
 10
15679.862676590001
 20
12614.591669920001
 30
0.0
 11
16074.862676590001
 21
12614.591669920001
 31
0.0
  0
LINE
  5
9D8
  8
M2-0
  6
CONTINUOUS
 62
     2
 10
15679.862676590001
 20
12676.79166992
 30
0.0
 11
16074.862676590001
 21
12676.79166992
 31
0.0
  0
LINE
  5
9D9
  8
M2-0
  6
CONTINUOUS
 62
     2
 10
15679.862676590001
 20
12746.53311808999
 30
0.0
 11
16074.862676590001
 21
12746.53311808999
 31
0.0
  0
LINE
  5
9DA
  8
M2-0
  6
CONTINUOUS
 62
     2
 10
15679.862676590001
 20
12816.27456625999
 30
0.0
 11
16074.862676590001
 21
12816.27456625999
 31
0.0
  0
LINE
  5
9DB
  8
M2-0
  6
CONTINUOUS
 62
     2
 10
15679.862676590001
 20
12878.47456626
 30
0.0
 11
16074.862676590001
 21
12878.47456626
 31
0.0
  0
LINE
  5
9DC
  8
M2-0
  6
CONTINUOUS
 62
     2
 10
15946.862676590001
 20
12806.53311808999
 30
0.0
 11
15976.862676590001
 21
12806.53311808999
 31
0.0
  0
LINE
  5
9DD
  8
M2-0
  6
CONTINUOUS
 62
     2
 10
15961.862676590001
 20
12791.53311808999
 30
0.0
 11
15961.862676590001
 21
12821.533118089999
 31
0.0
  0
TEXT
  5
9DE
  8
M2-0
  6
CONTINUOUS
 62
     7
 10
15914.578358840001
 20
12246.0584124
 30
0.0
 40
40.0000006
  1
U-RIB 320X240X6
  0
LINE
  5
9DF
  8
M2-0
  6
CONTINUOUS
 62
     7
 10
15274.862676590001
 20
13086.074566259969
 30
0.0
 11
15669.862676590001
 21
13086.074566259969
 31
0.0
  0
LINE
  5
9E0
  8
M2-0
  6
CONTINUOUS
 62
     7
 10
15679.862676590001
 20
13086.074566259969
 30
0.0
 11
16074.862676590001
 21
13086.074566259969
 31
0.0
  0
LINE
  5
9E1
  8
M2-0
  6
CONTINUOUS
 62
     7
 10
15679.862676590001
 20
12406.99166992
 30
0.0
 11
16074.862676590001
 21
12406.99166992
 31
0.0
  0
LINE
  5
9E2
  8
M2-0
  6
CONTINUOUS
 62
     7
 10
15274.862676590001
 20
12406.99166992
 30
0.0
 11
15669.862676590001
 21
12406.99166992
 31
0.0
  0
LINE
  5
9E3
  8
M2-0
  6
CONTINUOUS
 62
     7
 10
15669.862676590001
 20
12796.533118089999
 30
0.0
 11
15669.862676590001
 21
13086.074566259969
 31
0.0
  0
LINE
  5
9E4
  8
M2-0
  6
CONTINUOUS
 62
     7
 10
15679.862676590001
 20
12796.533118089999
 30
0.0
 11
15679.862676590001
 21
13086.074566259969
 31
0.0
  0
LINE
  5
9E5
  8
M2-0
  6
CONTINUOUS
 62
     7
 10
15669.862676590001
 20
12406.99166992
 30
0.0
 11
15669.862676590001
 21
12696.533118089999
 31
0.0
  0
LINE
  5
9E6
  8
M2-0
  6
CONTINUOUS
 62
     7
 10
15679.862676590001
 20
12406.99166992
 30
0.0
 11
15679.862676590001
 21
12696.533118089999
 31
0.0
  0
LINE
  5
9E7
  8
M2-0
  6
CONTINUOUS
 62
     7
 10
15604.862676590001
 20
12796.533118089999
 30
0.0
 11
15669.862676590001
 21
12796.533118089999
 31
0.0
  0
ARC
  5
9E8
  8
M2-0
  6
CONTINUOUS
 62
     7
 10
15604.862676590001
 20
12746.53311808999
 30
0.0
 40
50.0
 50
90.0
 51
270.0
  0
LINE
  5
9E9
  8
M2-0
  6
CONTINUOUS
 62
     7
 10
15604.862676590001
 20
12696.533118089999
 30
0.0
 11
15669.862676590001
 21
12696.533118089999
 31
0.0
  0
LINE
  5
9EA
  8
M2-0
  6
CONTINUOUS
 62
     7
 10
15679.862676590001
 20
12696.533118089999
 30
0.0
 11
15744.862676590001
 21
12696.533118089999
 31
0.0
  0
ARC
  5
9EB
  8
M2-0
  6
CONTINUOUS
 62
     7
 10
15744.862676590001
 20
12746.53311808999
 30
0.0
 40
50.0
 50
270.0
 51
90.0
  0
LINE
  5
9EC
  8
M2-0
  6
CONTINUOUS
 62
     7
 10
15679.862676590001
 20
12796.533118089999
 30
0.0
 11
15744.862676590001
 21
12796.533118089999
 31
0.0
  0
LINE
  5
9ED
  8
M2-0
  6
CONTINUOUS
 62
     7
 10
16296.57981177
 20
12906.24387747999
 30
0.0
 11
16499.25703008
 21
12861.20449563
 31
0.0
  0
LINE
  5
9EE
  8
M2-0
  6
CONTINUOUS
 62
     7
 10
16295.278229019999
 20
12900.38675512
 30
0.0
 11
16296.57981177
 21
12906.24387747999
 31
0.0
  0
ARC
  5
9EF
  8
M2-0
  6
CONTINUOUS
 62
     7
 10
16489.278229020001
 20
12816.29989086
 30
0.0
 40
46.0
 50
0.0
 51
77.471192290000005
  0
LINE
  5
9F0
  8
M2-0
  6
CONTINUOUS
 62
     7
 10
16535.278229020001
 20
12676.76634530999
 30
0.0
 11
16535.278229020001
 21
12816.29989086
 31
0.0
  0
ARC
  5
9F1
  8
M2-0
  6
CONTINUOUS
 62
     7
 10
16489.278229020001
 20
12676.76634530999
 30
0.0
 40
46.0
 50
282.52880771000002
 51
0.0
  0
LINE
  5
9F2
  8
M2-0
  6
CONTINUOUS
 62
     7
 10
16296.57981177
 20
12586.822358699999
 30
0.0
 11
16499.25703008
 21
12631.861740550001
 31
0.0
  0
LINE
  5
9F3
  8
M2-0
  6
CONTINUOUS
 62
     7
 10
16295.278229019999
 20
12592.67948106
 30
0.0
 11
16296.57981177
 21
12586.822358699999
 31
0.0
  0
CIRCLE
  5
9F4
  8
M2-0
  6
CONTINUOUS
 62
     2
 10
15719.862676590001
 20
12927.37456625999
 30
0.0
 40
13.25
  0
CIRCLE
  5
9F5
  8
M2-0
  6
CONTINUOUS
 62
     2
 10
15794.862676590001
 20
12927.37456625999
 30
0.0
 40
13.25
  0
CIRCLE
  5
9F6
  8
M2-0
  6
CONTINUOUS
 62
     2
 10
15719.862676590001
 20
13002.37456625999
 30
0.0
 40
13.25
  0
CIRCLE
  5
9F7
  8
M2-0
  6
CONTINUOUS
 62
     2
 10
15794.862676590001
 20
13002.37456625999
 30
0.0
 40
13.25
  0
CIRCLE
  5
9F8
  8
M2-0
  6
CONTINUOUS
 62
     2
 10
15554.862676590001
 20
12927.37456625999
 30
0.0
 40
13.25
  0
CIRCLE
  5
9F9
  8
M2-0
  6
CONTINUOUS
 62
     2
 10
15629.862676590001
 20
12927.37456625999
 30
0.0
 40
13.25
  0
CIRCLE
  5
9FA
  8
M2-0
  6
CONTINUOUS
 62
     2
 10
15554.862676590001
 20
13002.37456625999
 30
0.0
 40
13.25
  0
CIRCLE
  5
9FB
  8
M2-0
  6
CONTINUOUS
 62
     2
 10
15629.862676590001
 20
13002.37456625999
 30
0.0
 40
13.25
  0
CIRCLE
  5
9FC
  8
M2-0
  6
CONTINUOUS
 62
     2
 10
15554.862676590001
 20
12490.69166991999
 30
0.0
 40
13.25
  0
CIRCLE
  5
9FD
  8
M2-0
  6
CONTINUOUS
 62
     2
 10
15629.862676590001
 20
12490.69166991999
 30
0.0
 40
13.25
  0
CIRCLE
  5
9FE
  8
M2-0
  6
CONTINUOUS
 62
     2
 10
15554.862676590001
 20
12565.691669919999
 30
0.0
 40
13.25
  0
CIRCLE
  5
9FF
  8
M2-0
  6
CONTINUOUS
 62
     2
 10
15629.862676590001
 20
12565.691669919999
 30
0.0
 40
13.25
  0
CIRCLE
  5
A00
  8
M2-0
  6
CONTINUOUS
 62
     2
 10
15719.862676590001
 20
12490.69166991999
 30
0.0
 40
13.25
  0
CIRCLE
  5
A01
  8
M2-0
  6
CONTINUOUS
 62
     2
 10
15794.862676590001
 20
12490.69166991999
 30
0.0
 40
13.25
  0
CIRCLE
  5
A02
  8
M2-0
  6
CONTINUOUS
 62
     2
 10
15719.862676590001
 20
12565.691669919999
 30
0.0
 40
13.25
  0
CIRCLE
  5
A03
  8
M2-0
  6
CONTINUOUS
 62
     2
 10
15794.862676590001
 20
12565.691669919999
 30
0.0
 40
13.25
  0
CIRCLE
  5
A04
  8
M2-0
  6
CONTINUOUS
 62
     2
 10
15961.862676590001
 20
12806.53311808999
 30
0.0
 40
7.0
  0
ENDSEC
  0
EOF
