  0
SECTION
  2
HEADER
  9
$ACADVER
  1
AC1009
  9
$INSBASE
 10
0.0
 20
0.0
 30
0.0
  9
$EXTMIN
 10
14902.218734539991
 20
9867.6997221500005
 30
0.0
  9
$EXTMAX
 10
17222.218820959999
 20
11507.69974948
 30
0.0
  9
$LIMMIN
 10
14438.218717249991
 20
9063.6996753200001
  9
$LIMMAX
 10
17686.218838249999
 20
12311.69979631
  9
$ORTHOMODE
 70
     0
  9
$REGENMODE
 70
     1
  9
$FILLMODE
 70
     1
  9
$QTEXTMODE
 70
     0
  9
$MIRRTEXT
 70
     1
  9
$DRAGMODE
 70
     2
  9
$LTSCALE
 40
1.0
  9
$OSMODE
 70
    43
  9
$ATTMODE
 70
     1
  9
$TEXTSIZE
 40
0.2
  9
$TRACEWID
 40
0.05
  9
$TEXTSTYLE
  7
STANDARD
  9
$CLAYER
  8
41
  9
$CELTYPE
  6
BYLAYER
  9
$CECOLOR
 62
   256
  9
$DIMSCALE
 40
1.0
  9
$DIMASZ
 40
1.0
  9
$DIMEXO
 40
0.0625
  9
$DIMDLI
 40
0.38
  9
$DIMRND
 40
0.0
  9
$DIMDLE
 40
0.0
  9
$DIMEXE
 40
0.18
  9
$DIMTP
 40
0.0
  9
$DIMTM
 40
0.0
  9
$DIMTXT
 40
3.0
  9
$DIMCEN
 40
0.09
  9
$DIMTSZ
 40
0.0
  9
$DIMTOL
 70
     0
  9
$DIMLIM
 70
     0
  9
$DIMTIH
 70
     1
  9
$DIMTOH
 70
     1
  9
$DIMSE1
 70
     0
  9
$DIMSE2
 70
     0
  9
$DIMTAD
 70
     0
  9
$DIMZIN
 70
     0
  9
$DIMBLK
  1

  9
$DIMASO
 70
     1
  9
$DIMSHO
 70
     1
  9
$DIMPOST
  1

  9
$DIMAPOST
  1

  9
$DIMALT
 70
     0
  9
$DIMALTD
 70
     2
  9
$DIMALTF
 40
25.399999999999999
  9
$DIMLFAC
 40
1.0
  9
$DIMTOFL
 70
     0
  9
$DIMTVP
 40
0.0
  9
$DIMTIX
 70
     0
  9
$DIMSOXD
 70
     0
  9
$DIMSAH
 70
     0
  9
$DIMBLK1
  1

  9
$DIMBLK2
  1

  9
$DIMSTYLE
  2
STANDARD
  9
$DIMCLRD
 70
     0
  9
$DIMCLRE
 70
     0
  9
$DIMCLRT
 70
     0
  9
$DIMTFAC
 40
1.0
  9
$DIMGAP
 40
0.09
  9
$LUNITS
 70
     2
  9
$LUPREC
 70
     4
  9
$SKETCHINC
 40
0.1
  9
$FILLETRAD
 40
0.0
  9
$AUNITS
 70
     1
  9
$AUPREC
 70
     4
  9
$MENU
  1
        
  9
$ELEVATION
 40
0.0
  9
$PELEVATION
 40
0.0
  9
$THICKNESS
 40
0.0
  9
$LIMCHECK
 70
     0
  9
$BLIPMODE
 70
     0
  9
$CHAMFERA
 40
0.0
  9
$CHAMFERB
 40
0.0
  9
$SKPOLY
 70
     0
  9
$TDCREATE
 40
2452201.5448463419
  9
$TDUPDATE
 40
2452201.5522163068
  9
$TDINDWG
 40
0.0004036921
  9
$TDUSRTIMER
 40
0.0004035764
  9
$USRTIMER
 70
     1
  9
$ANGBASE
 50
0.0
  9
$ANGDIR
 70
     0
  9
$PDMODE
 70
     0
  9
$PDSIZE
 40
0.0
  9
$PLINEWID
 40
0.0
  9
$COORDS
 70
     0
  9
$SPLFRAME
 70
     0
  9
$SPLINETYPE
 70
     6
  9
$SPLINESEGS
 70
     8
  9
$ATTDIA
 70
     0
  9
$ATTREQ
 70
     1
  9
$HANDLING
 70
  4097
  9
$HANDSEED
  5
6AD
  9
$SURFTAB1
 70
     6
  9
$SURFTAB2
 70
     6
  9
$SURFTYPE
 70
     6
  9
$SURFU
 70
     6
  9
$SURFV
 70
     6
  9
$UCSNAME
  2

  9
$UCSORG
 10
0.0
 20
0.0
 30
0.0
  9
$UCSXDIR
 10
1.0
 20
0.0
 30
0.0
  9
$UCSYDIR
 10
0.0
 20
1.0
 30
0.0
  9
$PUCSNAME
  2

  9
$PUCSORG
 10
0.0
 20
0.0
 30
0.0
  9
$PUCSXDIR
 10
1.0
 20
0.0
 30
0.0
  9
$PUCSYDIR
 10
0.0
 20
1.0
 30
0.0
  9
$USERI1
 70
     0
  9
$USERI2
 70
     0
  9
$USERI3
 70
     0
  9
$USERI4
 70
     0
  9
$USERI5
 70
     0
  9
$USERR1
 40
0.0
  9
$USERR2
 40
0.0
  9
$USERR3
 40
0.0
  9
$USERR4
 40
0.0
  9
$USERR5
 40
0.0
  9
$WORLDVIEW
 70
     1
  9
$SHADEDGE
 70
     3
  9
$SHADEDIF
 70
    70
  9
$TILEMODE
 70
     1
  9
$MAXACTVP
 70
    64
  9
$PLIMCHECK
 70
     0
  9
$PEXTMIN
 10
1.0000000000000000E+020
 20
1.0000000000000000E+020
 30
1.0000000000000000E+020
  9
$PEXTMAX
 10
-1.0000000000000000E+020
 20
-1.0000000000000000E+020
 30
-1.0000000000000000E+020
  9
$PLIMMIN
 10
0.0
 20
0.0
  9
$PLIMMAX
 10
12.0
 20
9.0
  9
$UNITMODE
 70
     0
  9
$VISRETAIN
 70
     1
  9
$PLINEGEN
 70
     0
  9
$PSLTSCALE
 70
     1
  0
ENDSEC
  0
SECTION
  2
TABLES
  0
TABLE
  2
VPORT
 70
     2
  0
VPORT
  2
*ACTIVE
 70
     0
 10
0.0
 20
0.0
 11
1.0
 21
1.0
 12
16062.21877775
 22
10687.699735815
 13
0.0
 23
0.0
 14
1.0
 24
1.0
 15
0.0
 25
0.0
 16
0.0
 26
0.0
 36
1.0
 17
0.0
 27
0.0
 37
0.0
 40
1652.3308546031581
 41
1.478042659974905
 42
50.0
 43
0.0
 44
0.0
 50
0.0
 51
0.0
 71
     0
 72
   100
 73
     1
 74
     1
 75
     0
 76
     0
 77
     0
 78
     0
  0
ENDTAB
  0
TABLE
  2
LTYPE
 70
     6
  0
LTYPE
  2
CONTINUOUS
 70
     0
  3
Solid line
 72
    65
 73
     0
 40
0.0
  0
LTYPE
  2
DOT
 70
     0
  3
Dot line
 72
    65
 73
     2
 40
1.0
 49
0.0
 49
-1.0
  0
LTYPE
  2
HIDDEN
 70
     0
  3
Hidden line
 72
    65
 73
     2
 40
1.5
 49
1.0
 49
-0.5
  0
LTYPE
  2
DASHED
 70
     0
  3
Dashed line
 72
    65
 73
     2
 40
3.0
 49
2.0
 49
-1.0
  0
LTYPE
  2
CENTER
 70
     0
  3
Center line
 72
    65
 73
     4
 40
8.0
 49
5.0
 49
-1.0
 49
1.0
 49
-1.0
  0
LTYPE
  2
PHANTOM
 70
     0
  3
Phantom line
 72
    65
 73
     6
 40
10.0
 49
5.0
 49
-1.0
 49
1.0
 49
-1.0
 49
1.0
 49
-1.0
  0
ENDTAB
  0
TABLE
  2
LAYER
 70
     9
  0
LAYER
  2
0
 70
     0
 62
     5
  6
CONTINUOUS
  0
LAYER
  2
41
 70
     0
 62
     7
  6
CONTINUOUS
  0
LAYER
  2
1
 70
     0
 62
     1
  6
CONTINUOUS
  0
LAYER
  2
2
 70
     0
 62
     7
  6
CONTINUOUS
  0
LAYER
  2
3
 70
     0
 62
     3
  6
CONTINUOUS
  0
LAYER
  2
4
 70
     0
 62
     6
  6
CONTINUOUS
  0
LAYER
  2
5
 70
     0
 62
     2
  6
CONTINUOUS
  0
LAYER
  2
6
 70
     0
 62
     4
  6
CONTINUOUS
  0
LAYER
  2
M2-0
 70
     0
 62
     7
  6
CONTINUOUS
  0
ENDTAB
  0
TABLE
  2
STYLE
 70
     2
  0
STYLE
  2
STANDARD
 70
     0
 40
0.0
 41
1.0
 50
0.0
 71
     0
 42
0.2
  3
TXT
  4
BIGFONT
  0
STYLE
  2
STANDARD1
 70
     4
 40
0.0
 41
1.0
 50
0.0
 71
     0
 42
0.2
  3
TXT
  4
BIGFONT
  0
ENDTAB
  0
TABLE
  2
VIEW
 70
     0
  0
ENDTAB
  0
TABLE
  2
UCS
 70
     0
  0
ENDTAB
  0
TABLE
  2
APPID
 70
     1
  0
APPID
  2
ACAD
 70
     0
  0
ENDTAB
  0
TABLE
  2
DIMSTYLE
 70
     1
  0
DIMSTYLE
  2
STANDARD
 70
     0
  3

  4

  5

  6

  7

 40
1.0
 41
0.18
 42
0.0625
 43
0.38
 44
0.18
 45
0.0
 46
0.0
 47
0.0
 48
0.0
140
0.18
141
0.09
142
0.0
143
25.399999999999999
144
1.0
145
0.0
146
1.0
147
0.09
 71
     0
 72
     0
 73
     1
 74
     1
 75
     0
 76
     0
 77
     0
 78
     0
170
     0
171
     2
172
     0
173
     0
174
     0
175
     0
176
     0
177
     0
178
     0
  0
ENDTAB
  0
ENDSEC
  0
SECTION
  2
BLOCKS
  0
BLOCK
  8
0
  2
$MODEL_SPACE
 70
     0
 10
0.0
 20
0.0
 30
0.0
  3
$MODEL_SPACE
  1

  0
ENDBLK
  5
373
  8
0
  0
BLOCK
 67
     1
  8
0
  2
$PAPER_SPACE
 70
     0
 10
0.0
 20
0.0
 30
0.0
  3
$PAPER_SPACE
  1

  0
ENDBLK
  5
36F
 67
     1
  8
0
  0
ENDSEC
  0
SECTION
  2
ENTITIES
  0
POINT
  5
38D
  8
M2-0
  6
CONTINUOUS
 62
     1
 10
14902.218734539991
 20
9867.6997221500005
 30
0.0
  0
LINE
  5
38E
  8
M2-0
  6
CONTINUOUS
 62
     1
 10
14942.218733219999
 20
9907.699722780002
 30
0.0
 11
17222.218820959999
 21
9907.699722780002
 31
0.0
  0
LINE
  5
38F
  8
M2-0
  6
CONTINUOUS
 62
     1
 10
14942.218733219999
 20
11507.69974948
 30
0.0
 11
14942.218733219999
 21
9907.699722780002
 31
0.0
  0
LINE
  5
390
  8
M2-0
  6
CONTINUOUS
 62
     1
 10
17222.218820959999
 20
11507.69974948
 30
0.0
 11
14942.218733219999
 21
11507.69974948
 31
0.0
  0
LINE
  5
391
  8
M2-0
  6
CONTINUOUS
 62
     1
 10
17222.218820959999
 20
9907.699722780002
 30
0.0
 11
17222.218820959999
 21
11507.69974948
 31
0.0
  0
TEXT
  5
392
  8
M2-0
  6
CONTINUOUS
 62
     3
 10
15691.03830231999
 20
10372.255534100001
 30
0.0
 40
24.000000360000001
  1
６９．７
  0
TEXT
  5
393
  8
M2-0
  6
CONTINUOUS
 62
     3
 10
15560.16267659
 20
10307.435225880001
 30
0.0
 40
24.000000360000001
  1
１１４．７
  0
TEXT
  5
394
  8
M2-0
  6
CONTINUOUS
 62
     3
 10
15520.01267659
 20
10248.41535825
 30
0.0
 40
24.000000360000001
  1
１５９．７
  0
TEXT
  5
395
  8
M2-0
  6
CONTINUOUS
 62
     3
 10
15100.048408889999
 20
10683.91465429
 30
0.0
 40
24.000000360000001
  1
６７９．１
 50
90.0
  0
TEXT
  5
396
  8
M2-0
  6
CONTINUOUS
 62
     3
 10
15178.56839995
 20
10919.65610246
 30
0.0
 40
24.000000360000001
  1
２０７．６
 50
90.0
  0
TEXT
  5
397
  8
M2-0
  6
CONTINUOUS
 62
     3
 10
15178.56839995
 20
10683.91465429
 30
0.0
 40
24.000000360000001
  1
１３９．５
 50
90.0
  0
TEXT
  5
398
  8
M2-0
  6
CONTINUOUS
 62
     3
 10
15178.56839995
 20
10448.17320611998
 30
0.0
 40
24.000000360000001
  1
２０７．６
 50
90.0
  0
TEXT
  5
399
  8
M2-0
  6
CONTINUOUS
 62
     3
 10
15228.368399950001
 20
10819.402484739991
 30
0.0
 40
24.000000360000001
  1
６２．２
 50
90.0
  0
TEXT
  5
39A
  8
M2-0
  6
CONTINUOUS
 62
     3
 10
15228.368399950001
 20
10611.01081611
 30
0.0
 40
24.000000360000001
  1
６２．２
 50
90.0
  0
LINE
  5
39B
  8
M2-0
  6
CONTINUOUS
 62
     3
 10
15605.12122841999
 20
10352.4555341
 30
0.0
 11
15605.12122841999
 21
10669.07320612
 31
0.0
  0
LINE
  5
39C
  8
M2-0
  6
CONTINUOUS
 62
     3
 10
15674.862676590001
 20
10352.4555341
 30
0.0
 11
15674.862676590001
 21
10738.814654289999
 31
0.0
  0
POLYLINE
  5
39D
  8
M2-0
  6
CONTINUOUS
 62
     3
 66
     1
 10
0.0
 20
0.0
 30
0.0
  0
VERTEX
  5
5B5
  8
M2-0
  6
CONTINUOUS
 62
     3
 10
15689.351563980001
 20
10366.237819780001
 30
0.0
  0
VERTEX
  5
5B6
  8
M2-0
  6
CONTINUOUS
 62
     3
 10
15674.862676590001
 20
10362.355534099999
 30
0.0
  0
VERTEX
  5
5B7
  8
M2-0
  6
CONTINUOUS
 62
     3
 10
15689.351563980001
 20
10358.47324841999
 30
0.0
  0
SEQEND
  5
5B8
  8
M2-0
  6
CONTINUOUS
 62
     3
  0
POLYLINE
  5
3A2
  8
M2-0
  6
CONTINUOUS
 62
     3
 66
     1
 10
0.0
 20
0.0
 30
0.0
  0
VERTEX
  5
5B9
  8
M2-0
  6
CONTINUOUS
 62
     3
 10
15590.632341029999
 20
10358.47324841999
 30
0.0
  0
VERTEX
  5
5BA
  8
M2-0
  6
CONTINUOUS
 62
     3
 10
15605.12122841999
 20
10362.355534099999
 30
0.0
  0
VERTEX
  5
5BB
  8
M2-0
  6
CONTINUOUS
 62
     3
 10
15590.632341029999
 20
10366.237819780001
 30
0.0
  0
SEQEND
  5
5BC
  8
M2-0
  6
CONTINUOUS
 62
     3
  0
LINE
  5
3A7
  8
M2-0
  6
CONTINUOUS
 62
     3
 10
15575.121228419979
 20
10362.355534099999
 30
0.0
 11
15826.038302319999
 21
10362.355534099999
 31
0.0
  0
LINE
  5
3A8
  8
M2-0
  6
CONTINUOUS
 62
     3
 10
15560.16267659
 20
10287.63522588
 30
0.0
 11
15560.16267659
 21
10606.873206120001
 31
0.0
  0
LINE
  5
3A9
  8
M2-0
  6
CONTINUOUS
 62
     3
 10
15674.862676590001
 20
10287.63522588
 30
0.0
 11
15674.862676590001
 21
10738.814654289999
 31
0.0
  0
POLYLINE
  5
3AA
  8
M2-0
  6
CONTINUOUS
 62
     3
 66
     1
 10
0.0
 20
0.0
 30
0.0
  0
VERTEX
  5
5BD
  8
M2-0
  6
CONTINUOUS
 62
     3
 10
15689.351563980001
 20
10301.417511559999
 30
0.0
  0
VERTEX
  5
5BE
  8
M2-0
  6
CONTINUOUS
 62
     3
 10
15674.862676590001
 20
10297.53522587999
 30
0.0
  0
VERTEX
  5
5BF
  8
M2-0
  6
CONTINUOUS
 62
     3
 10
15689.351563980001
 20
10293.652940199991
 30
0.0
  0
SEQEND
  5
5C0
  8
M2-0
  6
CONTINUOUS
 62
     3
  0
POLYLINE
  5
3AF
  8
M2-0
  6
CONTINUOUS
 62
     3
 66
     1
 10
0.0
 20
0.0
 30
0.0
  0
VERTEX
  5
5C1
  8
M2-0
  6
CONTINUOUS
 62
     3
 10
15545.6737892
 20
10293.652940199991
 30
0.0
  0
VERTEX
  5
5C2
  8
M2-0
  6
CONTINUOUS
 62
     3
 10
15560.16267659
 20
10297.53522587999
 30
0.0
  0
VERTEX
  5
5C3
  8
M2-0
  6
CONTINUOUS
 62
     3
 10
15545.6737892
 20
10301.417511559999
 30
0.0
  0
SEQEND
  5
5C4
  8
M2-0
  6
CONTINUOUS
 62
     3
  0
LINE
  5
3B4
  8
M2-0
  6
CONTINUOUS
 62
     3
 10
15530.16267659
 20
10297.53522587999
 30
0.0
 11
15725.16267659
 21
10297.53522587999
 31
0.0
  0
LINE
  5
3B5
  8
M2-0
  6
CONTINUOUS
 62
     3
 10
15515.16267659
 20
10228.61535824999
 30
0.0
 11
15515.16267659
 21
10399.27320612
 31
0.0
  0
LINE
  5
3B6
  8
M2-0
  6
CONTINUOUS
 62
     3
 10
15674.862676590001
 20
10228.61535824999
 30
0.0
 11
15674.862676590001
 21
10738.814654289999
 31
0.0
  0
LINE
  5
3B7
  8
M2-0
  6
CONTINUOUS
 62
     3
 10
15485.16267659
 20
10238.515358250001
 30
0.0
 11
15704.862676590001
 21
10238.515358250001
 31
0.0
  0
POLYLINE
  5
3B8
  8
M2-0
  6
CONTINUOUS
 62
     3
 66
     1
 10
0.0
 20
0.0
 30
0.0
  0
VERTEX
  5
5C5
  8
M2-0
  6
CONTINUOUS
 62
     3
 10
15689.351563980001
 20
10242.39764393
 30
0.0
  0
VERTEX
  5
5C6
  8
M2-0
  6
CONTINUOUS
 62
     3
 10
15674.862676590001
 20
10238.515358250001
 30
0.0
  0
VERTEX
  5
5C7
  8
M2-0
  6
CONTINUOUS
 62
     3
 10
15689.351563980001
 20
10234.633072570001
 30
0.0
  0
SEQEND
  5
5C8
  8
M2-0
  6
CONTINUOUS
 62
     3
  0
POLYLINE
  5
3BD
  8
M2-0
  6
CONTINUOUS
 62
     3
 66
     1
 10
0.0
 20
0.0
 30
0.0
  0
VERTEX
  5
5C9
  8
M2-0
  6
CONTINUOUS
 62
     3
 10
15500.6737892
 20
10234.633072570001
 30
0.0
  0
VERTEX
  5
5CA
  8
M2-0
  6
CONTINUOUS
 62
     3
 10
15515.16267659
 20
10238.515358250001
 30
0.0
  0
VERTEX
  5
5CB
  8
M2-0
  6
CONTINUOUS
 62
     3
 10
15500.6737892
 20
10242.39764393
 30
0.0
  0
SEQEND
  5
5CC
  8
M2-0
  6
CONTINUOUS
 62
     3
  0
POLYLINE
  5
3C2
  8
M2-0
  6
CONTINUOUS
 62
     3
 66
     1
 10
0.0
 20
0.0
 30
0.0
  0
VERTEX
  5
5CD
  8
M2-0
  6
CONTINUOUS
 62
     3
 10
15113.830694559991
 20
11083.967215059991
 30
0.0
  0
VERTEX
  5
5CE
  8
M2-0
  6
CONTINUOUS
 62
     3
 10
15109.948408890001
 20
11098.456102460001
 30
0.0
  0
VERTEX
  5
5CF
  8
M2-0
  6
CONTINUOUS
 62
     3
 10
15106.066123209999
 20
11083.967215059991
 30
0.0
  0
SEQEND
  5
5D0
  8
M2-0
  6
CONTINUOUS
 62
     3
  0
POLYLINE
  5
3C7
  8
M2-0
  6
CONTINUOUS
 62
     3
 66
     1
 10
0.0
 20
0.0
 30
0.0
  0
VERTEX
  5
5D1
  8
M2-0
  6
CONTINUOUS
 62
     3
 10
15106.066123209999
 20
10433.862093510001
 30
0.0
  0
VERTEX
  5
5D2
  8
M2-0
  6
CONTINUOUS
 62
     3
 10
15109.948408890001
 20
10419.373206120001
 30
0.0
  0
VERTEX
  5
5D3
  8
M2-0
  6
CONTINUOUS
 62
     3
 10
15113.830694559991
 20
10433.862093510001
 30
0.0
  0
SEQEND
  5
5D4
  8
M2-0
  6
CONTINUOUS
 62
     3
  0
LINE
  5
3CC
  8
M2-0
  6
CONTINUOUS
 62
     3
 10
15109.948408890001
 20
11098.456102460001
 30
0.0
 11
15109.948408890001
 21
10419.373206120001
 31
0.0
  0
LINE
  5
3CD
  8
M2-0
  6
CONTINUOUS
 62
     3
 10
15100.048408889999
 20
10419.373206120001
 30
0.0
 11
15254.76267659
 21
10419.373206120001
 31
0.0
  0
LINE
  5
3CE
  8
M2-0
  6
CONTINUOUS
 62
     3
 10
15100.048408889999
 20
11098.456102460001
 30
0.0
 11
15254.76267659
 21
11098.456102460001
 31
0.0
  0
POLYLINE
  5
3CF
  8
M2-0
  6
CONTINUOUS
 62
     3
 66
     1
 10
0.0
 20
0.0
 30
0.0
  0
VERTEX
  5
5D5
  8
M2-0
  6
CONTINUOUS
 62
     3
 10
15192.350685629999
 20
11083.967215059991
 30
0.0
  0
VERTEX
  5
5D6
  8
M2-0
  6
CONTINUOUS
 62
     3
 10
15188.468399949979
 20
11098.456102460001
 30
0.0
  0
VERTEX
  5
5D7
  8
M2-0
  6
CONTINUOUS
 62
     3
 10
15184.58611428
 20
11083.967215059991
 30
0.0
  0
SEQEND
  5
5D8
  8
M2-0
  6
CONTINUOUS
 62
     3
  0
POLYLINE
  5
3D4
  8
M2-0
  6
CONTINUOUS
 62
     3
 66
     1
 10
0.0
 20
0.0
 30
0.0
  0
VERTEX
  5
5D9
  8
M2-0
  6
CONTINUOUS
 62
     3
 10
15184.58611428
 20
10905.34498985
 30
0.0
  0
VERTEX
  5
5DA
  8
M2-0
  6
CONTINUOUS
 62
     3
 10
15188.468399949979
 20
10890.85610246
 30
0.0
  0
VERTEX
  5
5DB
  8
M2-0
  6
CONTINUOUS
 62
     3
 10
15192.350685629999
 20
10905.34498985
 30
0.0
  0
SEQEND
  5
5DC
  8
M2-0
  6
CONTINUOUS
 62
     3
  0
LINE
  5
3D9
  8
M2-0
  6
CONTINUOUS
 62
     3
 10
15188.468399949979
 20
11098.456102460001
 30
0.0
 11
15188.468399949979
 21
10890.85610246
 31
0.0
  0
LINE
  5
3DA
  8
M2-0
  6
CONTINUOUS
 62
     3
 10
15178.56839995
 20
10890.85610246
 30
0.0
 11
15254.76267659
 21
10890.85610246
 31
0.0
  0
LINE
  5
3DB
  8
M2-0
  6
CONTINUOUS
 62
     3
 10
15178.56839995
 20
11098.456102460001
 30
0.0
 11
15254.76267659
 21
11098.456102460001
 31
0.0
  0
POLYLINE
  5
3DC
  8
M2-0
  6
CONTINUOUS
 62
     3
 66
     1
 10
0.0
 20
0.0
 30
0.0
  0
VERTEX
  5
5DD
  8
M2-0
  6
CONTINUOUS
 62
     3
 10
15184.58611428
 20
10905.34498985
 30
0.0
  0
VERTEX
  5
5DE
  8
M2-0
  6
CONTINUOUS
 62
     3
 10
15188.468399949979
 20
10890.85610246
 30
0.0
  0
VERTEX
  5
5DF
  8
M2-0
  6
CONTINUOUS
 62
     3
 10
15192.350685629999
 20
10905.34498985
 30
0.0
  0
SEQEND
  5
5E0
  8
M2-0
  6
CONTINUOUS
 62
     3
  0
LINE
  5
3E1
  8
M2-0
  6
CONTINUOUS
 62
     3
 10
15178.56839995
 20
10828.656102459991
 30
0.0
 11
15254.76267659
 21
10828.656102459991
 31
0.0
  0
LINE
  5
3E2
  8
M2-0
  6
CONTINUOUS
 62
     3
 10
15178.56839995
 20
10890.85610246
 30
0.0
 11
15254.76267659
 21
10890.85610246
 31
0.0
  0
LINE
  5
3E3
  8
M2-0
  6
CONTINUOUS
 62
     3
 10
15188.468399949979
 20
10858.65610246
 30
0.0
 11
15188.468399949979
 21
10659.17320612
 31
0.0
  0
LINE
  5
3E4
  8
M2-0
  6
CONTINUOUS
 62
     3
 10
15178.56839995
 20
10689.17320611998
 30
0.0
 11
15254.76267659
 21
10689.17320611998
 31
0.0
  0
LINE
  5
3E5
  8
M2-0
  6
CONTINUOUS
 62
     3
 10
15178.56839995
 20
10828.656102459991
 30
0.0
 11
15254.76267659
 21
10828.656102459991
 31
0.0
  0
POLYLINE
  5
3E6
  8
M2-0
  6
CONTINUOUS
 62
     3
 66
     1
 10
0.0
 20
0.0
 30
0.0
  0
VERTEX
  5
5E1
  8
M2-0
  6
CONTINUOUS
 62
     3
 10
15192.350685629999
 20
10612.48431872999
 30
0.0
  0
VERTEX
  5
5E2
  8
M2-0
  6
CONTINUOUS
 62
     3
 10
15188.468399949979
 20
10626.973206119999
 30
0.0
  0
VERTEX
  5
5E3
  8
M2-0
  6
CONTINUOUS
 62
     3
 10
15184.58611428
 20
10612.48431872999
 30
0.0
  0
SEQEND
  5
5E4
  8
M2-0
  6
CONTINUOUS
 62
     3
  0
LINE
  5
3EB
  8
M2-0
  6
CONTINUOUS
 62
     3
 10
15178.56839995
 20
10626.973206119999
 30
0.0
 11
15254.76267659
 21
10626.973206119999
 31
0.0
  0
LINE
  5
3EC
  8
M2-0
  6
CONTINUOUS
 62
     3
 10
15178.56839995
 20
10689.17320611998
 30
0.0
 11
15254.76267659
 21
10689.17320611998
 31
0.0
  0
POLYLINE
  5
3ED
  8
M2-0
  6
CONTINUOUS
 62
     3
 66
     1
 10
0.0
 20
0.0
 30
0.0
  0
VERTEX
  5
5E5
  8
M2-0
  6
CONTINUOUS
 62
     3
 10
15192.350685629999
 20
10612.48431872999
 30
0.0
  0
VERTEX
  5
5E6
  8
M2-0
  6
CONTINUOUS
 62
     3
 10
15188.468399949979
 20
10626.973206119999
 30
0.0
  0
VERTEX
  5
5E7
  8
M2-0
  6
CONTINUOUS
 62
     3
 10
15184.58611428
 20
10612.48431872999
 30
0.0
  0
SEQEND
  5
5E8
  8
M2-0
  6
CONTINUOUS
 62
     3
  0
POLYLINE
  5
3F2
  8
M2-0
  6
CONTINUOUS
 62
     3
 66
     1
 10
0.0
 20
0.0
 30
0.0
  0
VERTEX
  5
5E9
  8
M2-0
  6
CONTINUOUS
 62
     3
 10
15184.58611428
 20
10433.862093510001
 30
0.0
  0
VERTEX
  5
5EA
  8
M2-0
  6
CONTINUOUS
 62
     3
 10
15188.468399949979
 20
10419.373206120001
 30
0.0
  0
VERTEX
  5
5EB
  8
M2-0
  6
CONTINUOUS
 62
     3
 10
15192.350685629999
 20
10433.862093510001
 30
0.0
  0
SEQEND
  5
5EC
  8
M2-0
  6
CONTINUOUS
 62
     3
  0
LINE
  5
3F7
  8
M2-0
  6
CONTINUOUS
 62
     3
 10
15188.468399949979
 20
10626.973206119999
 30
0.0
 11
15188.468399949979
 21
10419.373206120001
 31
0.0
  0
LINE
  5
3F8
  8
M2-0
  6
CONTINUOUS
 62
     3
 10
15178.56839995
 20
10419.373206120001
 30
0.0
 11
15254.76267659
 21
10419.373206120001
 31
0.0
  0
LINE
  5
3F9
  8
M2-0
  6
CONTINUOUS
 62
     3
 10
15178.56839995
 20
10626.973206119999
 30
0.0
 11
15254.76267659
 21
10626.973206119999
 31
0.0
  0
POLYLINE
  5
3FA
  8
M2-0
  6
CONTINUOUS
 62
     3
 66
     1
 10
0.0
 20
0.0
 30
0.0
  0
VERTEX
  5
5ED
  8
M2-0
  6
CONTINUOUS
 62
     3
 10
15189.34084452
 20
10826.25999301
 30
0.0
  0
VERTEX
  5
5EE
  8
M2-0
  6
CONTINUOUS
 62
     3
 10
15190.77961666
 20
10827.578708689991
 30
0.0
  0
VERTEX
  5
5EF
  8
M2-0
  6
CONTINUOUS
 62
     3
 10
15190.864509399989
 20
10829.52854703
 30
0.0
  0
VERTEX
  5
5F0
  8
M2-0
  6
CONTINUOUS
 62
     3
 10
15189.545793720001
 20
10830.96731917
 30
0.0
  0
VERTEX
  5
5F1
  8
M2-0
  6
CONTINUOUS
 62
     3
 10
15187.59595537998
 20
10831.0522119
 30
0.0
  0
VERTEX
  5
5F2
  8
M2-0
  6
CONTINUOUS
 62
     3
 10
15186.15718324
 20
10829.73349621998
 30
0.0
  0
VERTEX
  5
5F3
  8
M2-0
  6
CONTINUOUS
 62
     3
 10
15186.07229050999
 20
10827.78365788
 30
0.0
  0
VERTEX
  5
5F4
  8
M2-0
  6
CONTINUOUS
 62
     3
 10
15187.391006190001
 20
10826.344885750001
 30
0.0
  0
VERTEX
  5
5F5
  8
M2-0
  6
CONTINUOUS
 62
     3
 10
15189.34084452
 20
10826.25999301
 30
0.0
  0
SEQEND
  5
5F6
  8
M2-0
  6
CONTINUOUS
 62
     3
  0
POLYLINE
  5
405
  8
M2-0
  6
CONTINUOUS
 62
     3
 66
     1
 10
0.0
 20
0.0
 30
0.0
  0
VERTEX
  5
5F7
  8
M2-0
  6
CONTINUOUS
 62
     3
 10
15189.34084452
 20
10826.25999301
 30
0.0
  0
VERTEX
  5
5F8
  8
M2-0
  6
CONTINUOUS
 62
     3
 10
15190.77961666
 20
10827.578708689991
 30
0.0
  0
VERTEX
  5
5F9
  8
M2-0
  6
CONTINUOUS
 62
     3
 10
15190.864509399989
 20
10829.52854703
 30
0.0
  0
VERTEX
  5
5FA
  8
M2-0
  6
CONTINUOUS
 62
     3
 10
15189.545793720001
 20
10830.96731917
 30
0.0
  0
VERTEX
  5
5FB
  8
M2-0
  6
CONTINUOUS
 62
     3
 10
15187.59595537998
 20
10831.0522119
 30
0.0
  0
VERTEX
  5
5FC
  8
M2-0
  6
CONTINUOUS
 62
     3
 10
15186.15718324
 20
10829.73349621998
 30
0.0
  0
VERTEX
  5
5FD
  8
M2-0
  6
CONTINUOUS
 62
     3
 10
15186.07229050999
 20
10827.78365788
 30
0.0
  0
VERTEX
  5
5FE
  8
M2-0
  6
CONTINUOUS
 62
     3
 10
15187.391006190001
 20
10826.344885750001
 30
0.0
  0
VERTEX
  5
5FF
  8
M2-0
  6
CONTINUOUS
 62
     3
 10
15189.34084452
 20
10826.25999301
 30
0.0
  0
SEQEND
  5
600
  8
M2-0
  6
CONTINUOUS
 62
     3
  0
POLYLINE
  5
410
  8
M2-0
  6
CONTINUOUS
 62
     3
 66
     1
 10
0.0
 20
0.0
 30
0.0
  0
VERTEX
  5
601
  8
M2-0
  6
CONTINUOUS
 62
     3
 10
15189.278710489991
 20
10686.75537717
 30
0.0
  0
VERTEX
  5
602
  8
M2-0
  6
CONTINUOUS
 62
     3
 10
15190.75103927999
 20
10688.036518950001
 30
0.0
  0
VERTEX
  5
603
  8
M2-0
  6
CONTINUOUS
 62
     3
 10
15190.886228900001
 20
10689.983516660001
 30
0.0
  0
VERTEX
  5
604
  8
M2-0
  6
CONTINUOUS
 62
     3
 10
15189.60508712
 20
10691.455845439979
 30
0.0
  0
VERTEX
  5
605
  8
M2-0
  6
CONTINUOUS
 62
     3
 10
15187.658089410001
 20
10691.59103507
 30
0.0
  0
VERTEX
  5
606
  8
M2-0
  6
CONTINUOUS
 62
     3
 10
15186.185760629991
 20
10690.30989328999
 30
0.0
  0
VERTEX
  5
607
  8
M2-0
  6
CONTINUOUS
 62
     3
 10
15186.050571
 20
10688.36289557999
 30
0.0
  0
VERTEX
  5
608
  8
M2-0
  6
CONTINUOUS
 62
     3
 10
15187.33171278
 20
10686.890566800001
 30
0.0
  0
VERTEX
  5
609
  8
M2-0
  6
CONTINUOUS
 62
     3
 10
15189.278710489991
 20
10686.75537717
 30
0.0
  0
SEQEND
  5
60A
  8
M2-0
  6
CONTINUOUS
 62
     3
  0
POLYLINE
  5
41B
  8
M2-0
  6
CONTINUOUS
 62
     3
 66
     1
 10
0.0
 20
0.0
 30
0.0
  0
VERTEX
  5
60B
  8
M2-0
  6
CONTINUOUS
 62
     3
 10
15189.278710489991
 20
10686.75537717
 30
0.0
  0
VERTEX
  5
60C
  8
M2-0
  6
CONTINUOUS
 62
     3
 10
15190.75103927999
 20
10688.036518950001
 30
0.0
  0
VERTEX
  5
60D
  8
M2-0
  6
CONTINUOUS
 62
     3
 10
15190.886228900001
 20
10689.983516660001
 30
0.0
  0
VERTEX
  5
60E
  8
M2-0
  6
CONTINUOUS
 62
     3
 10
15189.60508712
 20
10691.455845439979
 30
0.0
  0
VERTEX
  5
60F
  8
M2-0
  6
CONTINUOUS
 62
     3
 10
15187.658089410001
 20
10691.59103507
 30
0.0
  0
VERTEX
  5
610
  8
M2-0
  6
CONTINUOUS
 62
     3
 10
15186.185760629991
 20
10690.30989328999
 30
0.0
  0
VERTEX
  5
611
  8
M2-0
  6
CONTINUOUS
 62
     3
 10
15186.050571
 20
10688.36289557999
 30
0.0
  0
VERTEX
  5
612
  8
M2-0
  6
CONTINUOUS
 62
     3
 10
15187.33171278
 20
10686.890566800001
 30
0.0
  0
VERTEX
  5
613
  8
M2-0
  6
CONTINUOUS
 62
     3
 10
15189.278710489991
 20
10686.75537717
 30
0.0
  0
SEQEND
  5
614
  8
M2-0
  6
CONTINUOUS
 62
     3
  0
LINE
  5
426
  8
M2-0
  6
CONTINUOUS
 62
     3
 10
15188.468399949979
 20
10804.40248474
 30
0.0
 11
15188.468399949979
 21
10954.40248474
 31
0.0
  0
LINE
  5
427
  8
M2-0
  6
CONTINUOUS
 62
     3
 10
15188.468399949979
 20
10596.010816109991
 30
0.0
 11
15188.468399949979
 21
10746.01081611
 31
0.0
  0
TEXT
  5
428
  8
M2-0
  6
CONTINUOUS
 62
     3
 10
16159.10278392
 20
10713.93997888999
 30
0.0
 40
24.000000360000001
  1
３２０
 50
90.0
  0
TEXT
  5
429
  8
M2-0
  6
CONTINUOUS
 62
     3
 10
16389.622113829999
 20
11122.553711
 30
0.0
 40
24.000000360000001
  1
２４５．９
 50
347.47119228999992
  0
TEXT
  5
42A
  8
M2-0
  6
CONTINUOUS
 62
     3
 10
16230.99679951
 20
11107.15122865
 30
0.0
 40
24.000000360000001
  1
１．３
 50
347.47119228999992
  0
TEXT
  5
42B
  8
M2-0
  6
CONTINUOUS
 62
     3
 10
16410.086353729981
 20
11009.17260894
 30
0.0
 40
24.000000360000001
  1
７５
 50
347.47119228999992
  0
TEXT
  5
42C
  8
M2-0
  6
CONTINUOUS
 62
     3
 10
16261.977442290001
 20
11042.08570037
 30
0.0
 40
24.000000360000001
  1
８３．７
 50
347.47119228999992
  0
TEXT
  5
42D
  8
M2-0
  6
CONTINUOUS
 62
     3
 10
16482.16838246
 20
10993.15438034
 30
0.0
 40
24.000000360000001
  1
８５．９
 50
347.47119228999992
  0
TEXT
  5
42E
  8
M2-0
  6
CONTINUOUS
 62
     3
 10
16619.427368969991
 20
11010.027649969999
 30
0.0
 40
24.000000360000001
  1
６２．２
 50
308.73559614999999
  0
ARC
  5
42F
  8
M2-0
  6
CONTINUOUS
 62
     3
 10
16656.971012580001
 20
10963.22514122999
 30
0.0
 40
45.0
 50
350.54591104000002
 51
86.925281249999998
  0
TEXT
  5
430
  8
M2-0
  6
CONTINUOUS
 62
     3
 10
16361.361131850001
 20
11077.35616368999
 30
0.0
 40
24.000000360000001
  1
２０７．６
 50
347.47119228999992
  0
TEXT
  5
431
  8
M2-0
  6
CONTINUOUS
 62
     3
 10
16684.457453110001
 20
10683.939978889999
 30
0.0
 40
24.000000360000001
  1
１３９．５
 50
90.0
  0
TEXT
  5
432
  8
M2-0
  6
CONTINUOUS
 62
     3
 10
16631.880989730002
 20
10683.939978889999
 30
0.0
 40
24.000000360000001
  1
２１３．３
 50
90.0
  0
TEXT
  5
433
  8
M2-0
  6
CONTINUOUS
 62
     3
 10
16603.799347380002
 20
10520.388662999991
 30
0.0
 40
24.000000360000001
  1
６２．２
 50
51.264403850000001
  0
ARC
  5
434
  8
M2-0
  6
CONTINUOUS
 62
     3
 10
16641.342990990001
 20
10567.19117174
 30
0.0
 40
45.0
 50
93.074718749999988
 51
189.45408895999981
  0
TEXT
  5
435
  8
M2-0
  6
CONTINUOUS
 62
     3
 10
16357.01496242
 20
10460.08155653
 30
0.0
 40
24.000000360000001
  1
２０７．６
 50
12.528807710000001
  0
TEXT
  5
436
  8
M2-0
  6
CONTINUOUS
 62
     3
 10
16370.278229019999
 20
10408.59804954
 30
0.0
 40
24.000000360000001
  1
２４０
  0
TEXT
  5
437
  8
M2-0
  6
CONTINUOUS
 62
     3
 10
16445.07642338
 20
10734.64506932999
 30
0.0
 40
24.000000360000001
  1
Ｒ４０
 50
323.1699752699999
  0
TEXT
  5
438
  8
M2-0
  6
CONTINUOUS
 62
     3
 10
16425.105284919991
 20
10793.312827670001
 30
0.0
 40
24.000000360000001
  1
Ｒ４０
 50
36.642097159999999
  0
TEXT
  5
439
  8
M2-0
  6
CONTINUOUS
 62
     3
 10
16543.984478580001
 20
10787.91377304
 30
0.0
 40
24.000000360000001
  1
６
  0
TEXT
  5
43A
  8
M2-0
  6
CONTINUOUS
 62
     3
 10
16758.420543
 20
10321.43099434
 30
0.0
 40
24.000000360000001
  1
１５９．７
  0
TEXT
  5
43B
  8
M2-0
  6
CONTINUOUS
 62
     3
 10
16811.954764639999
 20
10388.436083889999
 30
0.0
 40
24.000000360000001
  1
１１４．７
  0
TEXT
  5
43C
  8
M2-0
  6
CONTINUOUS
 62
     3
 10
16826.648188409999
 20
10453.810280330001
 30
0.0
 40
24.000000360000001
  1
９８．６
  0
TEXT
  5
43D
  8
M2-0
  6
CONTINUOUS
 62
     3
 10
16818.392536300002
 20
10517.49204053
 30
0.0
 40
24.000000360000001
  1
６９．８
  0
POLYLINE
  5
43E
  8
M2-0
  6
CONTINUOUS
 62
     3
 66
     1
 10
0.0
 20
0.0
 30
0.0
  0
VERTEX
  5
615
  8
M2-0
  6
CONTINUOUS
 62
     3
 10
16172.88506959
 20
10904.451091499999
 30
0.0
  0
VERTEX
  5
616
  8
M2-0
  6
CONTINUOUS
 62
     3
 10
16169.00278391999
 20
10918.939978889979
 30
0.0
  0
VERTEX
  5
617
  8
M2-0
  6
CONTINUOUS
 62
     3
 10
16165.12049824
 20
10904.451091499999
 30
0.0
  0
SEQEND
  5
618
  8
M2-0
  6
CONTINUOUS
 62
     3
  0
POLYLINE
  5
443
  8
M2-0
  6
CONTINUOUS
 62
     3
 66
     1
 10
0.0
 20
0.0
 30
0.0
  0
VERTEX
  5
619
  8
M2-0
  6
CONTINUOUS
 62
     3
 10
16165.12049824
 20
10613.42886629
 30
0.0
  0
VERTEX
  5
61A
  8
M2-0
  6
CONTINUOUS
 62
     3
 10
16169.00278391999
 20
10598.939978889999
 30
0.0
  0
VERTEX
  5
61B
  8
M2-0
  6
CONTINUOUS
 62
     3
 10
16172.88506959
 20
10613.42886629
 30
0.0
  0
SEQEND
  5
61C
  8
M2-0
  6
CONTINUOUS
 62
     3
  0
LINE
  5
448
  8
M2-0
  6
CONTINUOUS
 62
     3
 10
16169.00278391999
 20
10918.939978889979
 30
0.0
 11
16169.00278391999
 21
10598.939978889999
 31
0.0
  0
LINE
  5
449
  8
M2-0
  6
CONTINUOUS
 62
     3
 10
16159.10278392
 20
10598.939978889999
 30
0.0
 11
16275.178229020001
 21
10598.939978889999
 31
0.0
  0
LINE
  5
44A
  8
M2-0
  6
CONTINUOUS
 62
     3
 10
16159.10278392
 20
10918.939978889979
 30
0.0
 11
16275.178229020001
 21
10918.939978889979
 31
0.0
  0
POLYLINE
  5
44B
  8
M2-0
  6
CONTINUOUS
 62
     3
 66
     1
 10
0.0
 20
0.0
 30
0.0
  0
VERTEX
  5
61D
  8
M2-0
  6
CONTINUOUS
 62
     3
 10
16355.67458220998
 20
11123.933097499999
 30
0.0
  0
VERTEX
  5
61E
  8
M2-0
  6
CONTINUOUS
 62
     3
 10
16340.688531809979
 20
11123.286341439991
 30
0.0
  0
VERTEX
  5
61F
  8
M2-0
  6
CONTINUOUS
 62
     3
 10
16353.990210190001
 20
11116.35342342
 30
0.0
  0
SEQEND
  5
620
  8
M2-0
  6
CONTINUOUS
 62
     3
  0
POLYLINE
  5
450
  8
M2-0
  6
CONTINUOUS
 62
     3
 66
     1
 10
0.0
 20
0.0
 30
0.0
  0
VERTEX
  5
621
  8
M2-0
  6
CONTINUOUS
 62
     3
 10
16565.70248141
 20
11069.30625204
 30
0.0
  0
VERTEX
  5
622
  8
M2-0
  6
CONTINUOUS
 62
     3
 10
16580.688531809981
 20
11069.95300811
 30
0.0
  0
VERTEX
  5
623
  8
M2-0
  6
CONTINUOUS
 62
     3
 10
16567.386853430002
 20
11076.88592611999
 30
0.0
  0
SEQEND
  5
624
  8
M2-0
  6
CONTINUOUS
 62
     3
  0
LINE
  5
455
  8
M2-0
  6
CONTINUOUS
 62
     3
 10
16340.688531809979
 20
11123.286341439991
 30
0.0
 11
16580.688531809981
 21
11069.95300811
 31
0.0
  0
LINE
  5
456
  8
M2-0
  6
CONTINUOUS
 62
     3
 10
16582.836143339991
 20
11079.617260000001
 30
0.0
 11
16539.638531219982
 21
10885.22800547
 31
0.0
  0
LINE
  5
457
  8
M2-0
  6
CONTINUOUS
 62
     3
 10
16342.83614334
 20
11132.95059334
 30
0.0
 11
16299.638531219991
 21
10938.5613388
 31
0.0
  0
POLYLINE
  5
458
  8
M2-0
  6
CONTINUOUS
 62
     3
 66
     1
 10
0.0
 20
0.0
 30
0.0
  0
VERTEX
  5
625
  8
M2-0
  6
CONTINUOUS
 62
     3
 10
16314.97605859
 20
11074.37068269
 30
0.0
  0
VERTEX
  5
626
  8
M2-0
  6
CONTINUOUS
 62
     3
 10
16329.96210898999
 20
11075.01743874999
 30
0.0
  0
VERTEX
  5
627
  8
M2-0
  6
CONTINUOUS
 62
     3
 10
16316.66043061
 20
11081.950356769999
 30
0.0
  0
SEQEND
  5
628
  8
M2-0
  6
CONTINUOUS
 62
     3
  0
POLYLINE
  5
45D
  8
M2-0
  6
CONTINUOUS
 62
     3
 66
     1
 10
0.0
 20
0.0
 30
0.0
  0
VERTEX
  5
629
  8
M2-0
  6
CONTINUOUS
 62
     3
 10
16346.24974214
 20
11075.37495420999
 30
0.0
  0
VERTEX
  5
62A
  8
M2-0
  6
CONTINUOUS
 62
     3
 10
16331.26369174
 20
11074.728198139999
 30
0.0
  0
VERTEX
  5
62B
  8
M2-0
  6
CONTINUOUS
 62
     3
 10
16344.565370120001
 20
11067.795280129991
 30
0.0
  0
SEQEND
  5
62C
  8
M2-0
  6
CONTINUOUS
 62
     3
  0
LINE
  5
462
  8
M2-0
  6
CONTINUOUS
 62
     3
 10
16333.411303270001
 20
11084.392450040001
 30
0.0
 11
16300.94011397
 21
10938.27209819
 31
0.0
  0
LINE
  5
463
  8
M2-0
  6
CONTINUOUS
 62
     3
 10
16214.206382079999
 20
11100.74093362
 30
0.0
 11
16360.54930353999
 21
11068.22028440999
 31
0.0
  0
POLYLINE
  5
464
  8
M2-0
  6
CONTINUOUS
 62
     3
 66
     1
 10
0.0
 20
0.0
 30
0.0
  0
VERTEX
  5
62D
  8
M2-0
  6
CONTINUOUS
 62
     3
 10
16303.956971479991
 20
11018.63842772
 30
0.0
  0
VERTEX
  5
62E
  8
M2-0
  6
CONTINUOUS
 62
     3
 10
16318.943021880001
 20
11019.285183789991
 30
0.0
  0
VERTEX
  5
62F
  8
M2-0
  6
CONTINUOUS
 62
     3
 10
16305.641343499999
 20
11026.218101799999
 30
0.0
  0
SEQEND
  5
630
  8
M2-0
  6
CONTINUOUS
 62
     3
  0
POLYLINE
  5
469
  8
M2-0
  6
CONTINUOUS
 62
     3
 66
     1
 10
0.0
 20
0.0
 30
0.0
  0
VERTEX
  5
631
  8
M2-0
  6
CONTINUOUS
 62
     3
 10
16415.603389650001
 20
11001.78209155
 30
0.0
  0
VERTEX
  5
632
  8
M2-0
  6
CONTINUOUS
 62
     3
 10
16400.617339249991
 20
11001.13533547999
 30
0.0
  0
VERTEX
  5
633
  8
M2-0
  6
CONTINUOUS
 62
     3
 10
16413.91901763
 20
10994.20241745999
 30
0.0
  0
SEQEND
  5
634
  8
M2-0
  6
CONTINUOUS
 62
     3
  0
LINE
  5
46E
  8
M2-0
  6
CONTINUOUS
 62
     3
 10
16402.764950780002
 20
11010.799587379999
 30
0.0
 11
16393.460954229991
 21
10968.9316029
 31
0.0
  0
POLYLINE
  5
46F
  8
M2-0
  6
CONTINUOUS
 62
     3
 66
     1
 10
0.0
 20
0.0
 30
0.0
  0
VERTEX
  5
635
  8
M2-0
  6
CONTINUOUS
 62
     3
 10
16415.603389650001
 20
11001.78209155
 30
0.0
  0
VERTEX
  5
636
  8
M2-0
  6
CONTINUOUS
 62
     3
 10
16400.617339249991
 20
11001.13533547999
 30
0.0
  0
VERTEX
  5
637
  8
M2-0
  6
CONTINUOUS
 62
     3
 10
16413.91901763
 20
10994.20241745999
 30
0.0
  0
SEQEND
  5
638
  8
M2-0
  6
CONTINUOUS
 62
     3
  0
POLYLINE
  5
474
  8
M2-0
  6
CONTINUOUS
 62
     3
 66
     1
 10
0.0
 20
0.0
 30
0.0
  0
VERTEX
  5
639
  8
M2-0
  6
CONTINUOUS
 62
     3
 10
16458.845318359981
 20
10984.21879508
 30
0.0
  0
VERTEX
  5
63A
  8
M2-0
  6
CONTINUOUS
 62
     3
 10
16473.831368759991
 20
10984.86555113999
 30
0.0
  0
VERTEX
  5
63B
  8
M2-0
  6
CONTINUOUS
 62
     3
 10
16460.529690380001
 20
10991.79846915999
 30
0.0
  0
SEQEND
  5
63C
  8
M2-0
  6
CONTINUOUS
 62
     3
  0
LINE
  5
479
  8
M2-0
  6
CONTINUOUS
 62
     3
 10
16400.617339249991
 20
11001.13533547999
 30
0.0
 11
16473.831368759991
 21
10984.86555113999
 31
0.0
  0
LINE
  5
47A
  8
M2-0
  6
CONTINUOUS
 62
     3
 10
16475.978980290001
 20
10994.529803040001
 30
0.0
 11
16466.674983739991
 21
10952.66181856
 31
0.0
  0
POLYLINE
  5
47B
  8
M2-0
  6
CONTINUOUS
 62
     3
 66
     1
 10
0.0
 20
0.0
 30
0.0
  0
VERTEX
  5
63D
  8
M2-0
  6
CONTINUOUS
 62
     3
 10
16458.845318359981
 20
10984.21879508
 30
0.0
  0
VERTEX
  5
63E
  8
M2-0
  6
CONTINUOUS
 62
     3
 10
16473.831368759991
 20
10984.86555113999
 30
0.0
  0
VERTEX
  5
63F
  8
M2-0
  6
CONTINUOUS
 62
     3
 10
16460.529690380001
 20
10991.79846915999
 30
0.0
  0
SEQEND
  5
640
  8
M2-0
  6
CONTINUOUS
 62
     3
  0
POLYLINE
  5
480
  8
M2-0
  6
CONTINUOUS
 62
     3
 66
     1
 10
0.0
 20
0.0
 30
0.0
  0
VERTEX
  5
641
  8
M2-0
  6
CONTINUOUS
 62
     3
 10
16572.627489530001
 20
10966.887847129999
 30
0.0
  0
VERTEX
  5
642
  8
M2-0
  6
CONTINUOUS
 62
     3
 10
16557.641439129999
 20
10966.241091059999
 30
0.0
  0
VERTEX
  5
643
  8
M2-0
  6
CONTINUOUS
 62
     3
 10
16570.943117509989
 20
10959.308173049991
 30
0.0
  0
SEQEND
  5
644
  8
M2-0
  6
CONTINUOUS
 62
     3
  0
LINE
  5
485
  8
M2-0
  6
CONTINUOUS
 62
     3
 10
16245.187024860001
 20
11035.675405350001
 30
0.0
 11
16429.90295105
 21
10994.627421749999
 31
0.0
  0
LINE
  5
486
  8
M2-0
  6
CONTINUOUS
 62
     3
 10
16444.54575696
 20
10991.37346488
 30
0.0
 11
16611.806024050002
 21
10954.20451664
 31
0.0
  0
POLYLINE
  5
487
  8
M2-0
  6
CONTINUOUS
 62
     3
 66
     1
 10
0.0
 20
0.0
 30
0.0
  0
VERTEX
  5
645
  8
M2-0
  6
CONTINUOUS
 62
     3
 10
16689.966715009999
 20
10843.049743650001
 30
0.0
  0
VERTEX
  5
646
  8
M2-0
  6
CONTINUOUS
 62
     3
 10
16694.357453109998
 20
10828.706751670001
 30
0.0
  0
VERTEX
  5
647
  8
M2-0
  6
CONTINUOUS
 62
     3
 10
16697.726458370002
 20
10843.323516140001
 30
0.0
  0
SEQEND
  5
648
  8
M2-0
  6
CONTINUOUS
 62
     3
  0
POLYLINE
  5
48C
  8
M2-0
  6
CONTINUOUS
 62
     3
 66
     1
 10
0.0
 20
0.0
 30
0.0
  0
VERTEX
  5
649
  8
M2-0
  6
CONTINUOUS
 62
     3
 10
16548.765695180002
 20
11029.020394470001
 30
0.0
  0
VERTEX
  5
64A
  8
M2-0
  6
CONTINUOUS
 62
     3
 10
16533.766158990002
 20
11028.90243654
 30
0.0
  0
VERTEX
  5
64B
  8
M2-0
  6
CONTINUOUS
 62
     3
 10
16546.81511734
 20
11021.50482300998
 30
0.0
  0
SEQEND
  5
64C
  8
M2-0
  6
CONTINUOUS
 62
     3
  0
ARC
  5
491
  8
M2-0
  6
CONTINUOUS
 62
     3
 10
16489.278229020001
 20
10828.706751670001
 30
0.0
 40
205.07922408999991
 50
0.0
 51
77.471192290000005
  0
LINE
  5
492
  8
M2-0
  6
CONTINUOUS
 62
     3
 10
16704.25745311
 20
10828.706751670001
 30
0.0
 11
16555.37822902
 21
10828.706751670001
 31
0.0
  0
LINE
  5
493
  8
M2-0
  6
CONTINUOUS
 62
     3
 10
16535.913770520001
 20
11038.566688430001
 30
0.0
 11
16503.617332279991
 21
10893.232716349999
 31
0.0
  0
POLYLINE
  5
494
  8
M2-0
  6
CONTINUOUS
 62
     3
 66
     1
 10
0.0
 20
0.0
 30
0.0
  0
VERTEX
  5
64D
  8
M2-0
  6
CONTINUOUS
 62
     3
 10
16346.07499108
 20
11074.58857444999
 30
0.0
  0
VERTEX
  5
64E
  8
M2-0
  6
CONTINUOUS
 62
     3
 10
16331.08894068
 20
11073.94181839
 30
0.0
  0
VERTEX
  5
64F
  8
M2-0
  6
CONTINUOUS
 62
     3
 10
16344.390619059999
 20
11067.00890036999
 30
0.0
  0
SEQEND
  5
650
  8
M2-0
  6
CONTINUOUS
 62
     3
  0
POLYLINE
  5
499
  8
M2-0
  6
CONTINUOUS
 62
     3
 66
     1
 10
0.0
 20
0.0
 30
0.0
  0
VERTEX
  5
651
  8
M2-0
  6
CONTINUOUS
 62
     3
 10
16518.780108589999
 20
11028.25568047
 30
0.0
  0
VERTEX
  5
652
  8
M2-0
  6
CONTINUOUS
 62
     3
 10
16533.766158990002
 20
11028.90243654
 30
0.0
  0
VERTEX
  5
653
  8
M2-0
  6
CONTINUOUS
 62
     3
 10
16520.46448061
 20
11035.83535456
 30
0.0
  0
SEQEND
  5
654
  8
M2-0
  6
CONTINUOUS
 62
     3
  0
LINE
  5
49E
  8
M2-0
  6
CONTINUOUS
 62
     3
 10
16331.08894068
 20
11073.94181839
 30
0.0
 11
16533.766158990002
 21
11028.90243654
 31
0.0
  0
POLYLINE
  5
49F
  8
M2-0
  6
CONTINUOUS
 62
     3
 66
     1
 10
0.0
 20
0.0
 30
0.0
  0
VERTEX
  5
655
  8
M2-0
  6
CONTINUOUS
 62
     3
 10
16690.475167439981
 20
10843.195639060001
 30
0.0
  0
VERTEX
  5
656
  8
M2-0
  6
CONTINUOUS
 62
     3
 10
16694.357453109998
 20
10828.706751670001
 30
0.0
  0
VERTEX
  5
657
  8
M2-0
  6
CONTINUOUS
 62
     3
 10
16698.239738789991
 20
10843.195639060001
 30
0.0
  0
SEQEND
  5
658
  8
M2-0
  6
CONTINUOUS
 62
     3
  0
POLYLINE
  5
4A4
  8
M2-0
  6
CONTINUOUS
 62
     3
 66
     1
 10
0.0
 20
0.0
 30
0.0
  0
VERTEX
  5
659
  8
M2-0
  6
CONTINUOUS
 62
     3
 10
16698.239738789991
 20
10674.68431873
 30
0.0
  0
VERTEX
  5
65A
  8
M2-0
  6
CONTINUOUS
 62
     3
 10
16694.357453109998
 20
10689.17320611998
 30
0.0
  0
VERTEX
  5
65B
  8
M2-0
  6
CONTINUOUS
 62
     3
 10
16690.475167439981
 20
10674.68431873
 30
0.0
  0
SEQEND
  5
65C
  8
M2-0
  6
CONTINUOUS
 62
     3
  0
LINE
  5
4A9
  8
M2-0
  6
CONTINUOUS
 62
     3
 10
16694.357453109998
 20
10858.706751670001
 30
0.0
 11
16694.357453109998
 21
10659.17320612
 31
0.0
  0
LINE
  5
4AA
  8
M2-0
  6
CONTINUOUS
 62
     3
 10
16704.25745311
 20
10689.17320611998
 30
0.0
 11
16555.37822902
 21
10689.17320611998
 31
0.0
  0
POLYLINE
  5
4AB
  8
M2-0
  6
CONTINUOUS
 62
     3
 66
     1
 10
0.0
 20
0.0
 30
0.0
  0
VERTEX
  5
65D
  8
M2-0
  6
CONTINUOUS
 62
     3
 10
16645.663275409999
 20
10851.11775816999
 30
0.0
  0
VERTEX
  5
65E
  8
M2-0
  6
CONTINUOUS
 62
     3
 10
16641.780989729981
 20
10865.60664555999
 30
0.0
  0
VERTEX
  5
65F
  8
M2-0
  6
CONTINUOUS
 62
     3
 10
16637.89870406
 20
10851.11775816999
 30
0.0
  0
SEQEND
  5
660
  8
M2-0
  6
CONTINUOUS
 62
     3
  0
POLYLINE
  5
4B0
  8
M2-0
  6
CONTINUOUS
 62
     3
 66
     1
 10
0.0
 20
0.0
 30
0.0
  0
VERTEX
  5
661
  8
M2-0
  6
CONTINUOUS
 62
     3
 10
16637.89870406
 20
10666.76219961999
 30
0.0
  0
VERTEX
  5
662
  8
M2-0
  6
CONTINUOUS
 62
     3
 10
16641.780989729981
 20
10652.27331223
 30
0.0
  0
VERTEX
  5
663
  8
M2-0
  6
CONTINUOUS
 62
     3
 10
16645.663275409999
 20
10666.76219961999
 30
0.0
  0
SEQEND
  5
664
  8
M2-0
  6
CONTINUOUS
 62
     3
  0
LINE
  5
4B5
  8
M2-0
  6
CONTINUOUS
 62
     3
 10
16641.780989729981
 20
10865.60664555999
 30
0.0
 11
16641.780989729981
 21
10652.27331223
 31
0.0
  0
LINE
  5
4B6
  8
M2-0
  6
CONTINUOUS
 62
     3
 10
16651.680989730001
 20
10652.27331223
 30
0.0
 11
16555.37822902
 21
10652.27331223
 31
0.0
  0
LINE
  5
4B7
  8
M2-0
  6
CONTINUOUS
 62
     3
 10
16651.680989730001
 20
10865.60664555999
 30
0.0
 11
16555.37822902
 21
10865.60664555999
 31
0.0
  0
POLYLINE
  5
4B8
  8
M2-0
  6
CONTINUOUS
 62
     3
 66
     1
 10
0.0
 20
0.0
 30
0.0
  0
VERTEX
  5
665
  8
M2-0
  6
CONTINUOUS
 62
     3
 10
16546.763872849991
 20
10496.604919269999
 30
0.0
  0
VERTEX
  5
666
  8
M2-0
  6
CONTINUOUS
 62
     3
 10
16533.715212629992
 20
10489.206779890001
 30
0.0
  0
VERTEX
  5
667
  8
M2-0
  6
CONTINUOUS
 62
     3
 10
16548.714753560002
 20
10489.089426419991
 30
0.0
  0
SEQEND
  5
668
  8
M2-0
  6
CONTINUOUS
 62
     3
  0
POLYLINE
  5
4BD
  8
M2-0
  6
CONTINUOUS
 62
     3
 66
     1
 10
0.0
 20
0.0
 30
0.0
  0
VERTEX
  5
669
  8
M2-0
  6
CONTINUOUS
 62
     3
 10
16697.491018190001
 20
10674.5563059
 30
0.0
  0
VERTEX
  5
66A
  8
M2-0
  6
CONTINUOUS
 62
     3
 10
16694.122601970001
 20
10689.17320611998
 30
0.0
  0
VERTEX
  5
66B
  8
M2-0
  6
CONTINUOUS
 62
     3
 10
16689.73128588
 20
10674.83039108999
 30
0.0
  0
SEQEND
  5
66C
  8
M2-0
  6
CONTINUOUS
 62
     3
  0
ARC
  5
4C2
  8
M2-0
  6
CONTINUOUS
 62
     3
 10
16489.278229020001
 20
10689.17320611998
 30
0.0
 40
204.84437295000001
 50
282.52880771000002
 51
0.0
  0
LINE
  5
4C3
  8
M2-0
  6
CONTINUOUS
 62
     3
 10
16535.862824160002
 20
10479.542528
 30
0.0
 11
16503.617332279991
 21
10624.64724143999
 31
0.0
  0
LINE
  5
4C4
  8
M2-0
  6
CONTINUOUS
 62
     3
 10
16704.022601969991
 20
10689.17320611998
 30
0.0
 11
16555.37822902
 21
10689.17320611998
 31
0.0
  0
POLYLINE
  5
4C5
  8
M2-0
  6
CONTINUOUS
 62
     3
 66
     1
 10
0.0
 20
0.0
 30
0.0
  0
VERTEX
  5
66D
  8
M2-0
  6
CONTINUOUS
 62
     3
 10
16520.41353424
 20
10482.273861879999
 30
0.0
  0
VERTEX
  5
66E
  8
M2-0
  6
CONTINUOUS
 62
     3
 10
16533.715212629992
 20
10489.206779890001
 30
0.0
  0
VERTEX
  5
66F
  8
M2-0
  6
CONTINUOUS
 62
     3
 10
16518.72916223
 20
10489.853535959979
 30
0.0
  0
SEQEND
  5
670
  8
M2-0
  6
CONTINUOUS
 62
     3
  0
POLYLINE
  5
4CA
  8
M2-0
  6
CONTINUOUS
 62
     3
 66
     1
 10
0.0
 20
0.0
 30
0.0
  0
VERTEX
  5
671
  8
M2-0
  6
CONTINUOUS
 62
     3
 10
16344.3396727
 20
10451.100316059999
 30
0.0
  0
VERTEX
  5
672
  8
M2-0
  6
CONTINUOUS
 62
     3
 10
16331.037994309991
 20
10444.167398049991
 30
0.0
  0
VERTEX
  5
673
  8
M2-0
  6
CONTINUOUS
 62
     3
 10
16346.02404471
 20
10443.520641979991
 30
0.0
  0
SEQEND
  5
674
  8
M2-0
  6
CONTINUOUS
 62
     3
  0
LINE
  5
4CF
  8
M2-0
  6
CONTINUOUS
 62
     3
 10
16533.715212629992
 20
10489.206779890001
 30
0.0
 11
16331.037994309991
 21
10444.167398049991
 31
0.0
  0
LINE
  5
4D0
  8
M2-0
  6
CONTINUOUS
 62
     3
 10
16333.185605849991
 20
10434.50314615
 30
0.0
 11
16300.94011397
 21
10579.60785959
 31
0.0
  0
POLYLINE
  5
4D1
  8
M2-0
  6
CONTINUOUS
 62
     3
 66
     1
 10
0.0
 20
0.0
 30
0.0
  0
VERTEX
  5
675
  8
M2-0
  6
CONTINUOUS
 62
     3
 10
16520.789341629981
 20
10394.81576387
 30
0.0
  0
VERTEX
  5
676
  8
M2-0
  6
CONTINUOUS
 62
     3
 10
16535.278229020001
 20
10398.69804954
 30
0.0
  0
VERTEX
  5
677
  8
M2-0
  6
CONTINUOUS
 62
     3
 10
16520.789341629981
 20
10402.58033521998
 30
0.0
  0
SEQEND
  5
678
  8
M2-0
  6
CONTINUOUS
 62
     3
  0
POLYLINE
  5
4D6
  8
M2-0
  6
CONTINUOUS
 62
     3
 66
     1
 10
0.0
 20
0.0
 30
0.0
  0
VERTEX
  5
679
  8
M2-0
  6
CONTINUOUS
 62
     3
 10
16309.76711641998
 20
10402.58033521998
 30
0.0
  0
VERTEX
  5
67A
  8
M2-0
  6
CONTINUOUS
 62
     3
 10
16295.278229019999
 20
10398.69804954
 30
0.0
  0
VERTEX
  5
67B
  8
M2-0
  6
CONTINUOUS
 62
     3
 10
16309.76711641998
 20
10394.81576387
 30
0.0
  0
SEQEND
  5
67C
  8
M2-0
  6
CONTINUOUS
 62
     3
  0
LINE
  5
4DB
  8
M2-0
  6
CONTINUOUS
 62
     3
 10
16535.278229020001
 20
10398.69804954
 30
0.0
 11
16295.278229019999
 21
10398.69804954
 31
0.0
  0
LINE
  5
4DC
  8
M2-0
  6
CONTINUOUS
 62
     3
 10
16295.278229019999
 20
10388.798049540001
 30
0.0
 11
16295.278229019999
 21
10578.839978890001
 31
0.0
  0
LINE
  5
4DD
  8
M2-0
  6
CONTINUOUS
 62
     3
 10
16535.278229020001
 20
10388.798049540001
 30
0.0
 11
16535.278229020001
 21
10669.07320612
 31
0.0
  0
POLYLINE
  5
4DE
  8
M2-0
  6
CONTINUOUS
 62
     3
 66
     1
 10
0.0
 20
0.0
 30
0.0
  0
VERTEX
  5
67D
  8
M2-0
  6
CONTINUOUS
 62
     3
 10
16512.0648196
 20
10840.817090160001
 30
0.0
  0
VERTEX
  5
67E
  8
M2-0
  6
CONTINUOUS
 62
     3
 10
16521.37339669
 20
10852.57933452
 30
0.0
  0
VERTEX
  5
67F
  8
M2-0
  6
CONTINUOUS
 62
     3
 10
16507.430810270002
 20
10847.04722065
 30
0.0
  0
SEQEND
  5
680
  8
M2-0
  6
CONTINUOUS
 62
     3
  0
POLYLINE
  5
4E3
  8
M2-0
  6
CONTINUOUS
 62
     3
 66
     1
 10
0.0
 20
0.0
 30
0.0
  0
VERTEX
  5
681
  8
M2-0
  6
CONTINUOUS
 62
     3
 10
16507.370556829999
 20
10670.77329626
 30
0.0
  0
VERTEX
  5
682
  8
M2-0
  6
CONTINUOUS
 62
     3
 10
16521.294923199999
 20
10665.19548117
 30
0.0
  0
VERTEX
  5
683
  8
M2-0
  6
CONTINUOUS
 62
     3
 10
16512.024975740002
 20
10676.98819392
 30
0.0
  0
SEQEND
  5
684
  8
M2-0
  6
CONTINUOUS
 62
     3
  0
LINE
  5
4E8
  8
M2-0
  6
CONTINUOUS
 62
     3
 10
16427.135676139991
 20
10735.71258437
 30
0.0
 11
16521.294923199999
 21
10665.19548117
 31
0.0
  0
LINE
  5
4E9
  8
M2-0
  6
CONTINUOUS
 62
     3
 10
16418.9780613
 20
10776.417055100001
 30
0.0
 11
16521.37339669
 21
10852.57933452
 31
0.0
  0
POLYLINE
  5
4EA
  8
M2-0
  6
CONTINUOUS
 62
     3
 66
     1
 10
0.0
 20
0.0
 30
0.0
  0
VERTEX
  5
685
  8
M2-0
  6
CONTINUOUS
 62
     3
 10
16514.789341629999
 20
10774.13148736
 30
0.0
  0
VERTEX
  5
686
  8
M2-0
  6
CONTINUOUS
 62
     3
 10
16529.278229020001
 20
10778.01377304
 30
0.0
  0
VERTEX
  5
687
  8
M2-0
  6
CONTINUOUS
 62
     3
 10
16514.789341629999
 20
10781.896058709979
 30
0.0
  0
SEQEND
  5
688
  8
M2-0
  6
CONTINUOUS
 62
     3
  0
POLYLINE
  5
4EF
  8
M2-0
  6
CONTINUOUS
 62
     3
 66
     1
 10
0.0
 20
0.0
 30
0.0
  0
VERTEX
  5
689
  8
M2-0
  6
CONTINUOUS
 62
     3
 10
16549.767116419978
 20
10781.896058709979
 30
0.0
  0
VERTEX
  5
68A
  8
M2-0
  6
CONTINUOUS
 62
     3
 10
16535.278229020001
 20
10778.01377304
 30
0.0
  0
VERTEX
  5
68B
  8
M2-0
  6
CONTINUOUS
 62
     3
 10
16549.767116419978
 20
10774.13148736
 30
0.0
  0
SEQEND
  5
68C
  8
M2-0
  6
CONTINUOUS
 62
     3
  0
LINE
  5
4F4
  8
M2-0
  6
CONTINUOUS
 62
     3
 10
16499.278229020001
 20
10778.01377304
 30
0.0
 11
16588.984478580001
 21
10778.01377304
 31
0.0
  0
LINE
  5
4F5
  8
M2-0
  6
CONTINUOUS
 62
     3
 10
16753.565163300002
 20
10301.630994339979
 30
0.0
 11
16753.565163300002
 21
10579.129219500001
 31
0.0
  0
LINE
  5
4F6
  8
M2-0
  6
CONTINUOUS
 62
     3
 10
16913.275922690002
 20
10301.630994339979
 30
0.0
 11
16913.275922690002
 21
10579.129219500001
 31
0.0
  0
LINE
  5
4F7
  8
M2-0
  6
CONTINUOUS
 62
     3
 10
16723.565163300002
 20
10311.530994340001
 30
0.0
 11
16943.275922690002
 21
10311.530994340001
 31
0.0
  0
POLYLINE
  5
4F8
  8
M2-0
  6
CONTINUOUS
 62
     3
 66
     1
 10
0.0
 20
0.0
 30
0.0
  0
VERTEX
  5
68D
  8
M2-0
  6
CONTINUOUS
 62
     3
 10
16927.764810090001
 20
10315.413280009991
 30
0.0
  0
VERTEX
  5
68E
  8
M2-0
  6
CONTINUOUS
 62
     3
 10
16913.275922690002
 20
10311.530994340001
 30
0.0
  0
VERTEX
  5
68F
  8
M2-0
  6
CONTINUOUS
 62
     3
 10
16927.764810090001
 20
10307.64870865999
 30
0.0
  0
SEQEND
  5
690
  8
M2-0
  6
CONTINUOUS
 62
     3
  0
POLYLINE
  5
4FD
  8
M2-0
  6
CONTINUOUS
 62
     3
 66
     1
 10
0.0
 20
0.0
 30
0.0
  0
VERTEX
  5
691
  8
M2-0
  6
CONTINUOUS
 62
     3
 10
16739.07627591
 20
10307.64870865999
 30
0.0
  0
VERTEX
  5
692
  8
M2-0
  6
CONTINUOUS
 62
     3
 10
16753.565163300002
 20
10311.530994340001
 30
0.0
  0
VERTEX
  5
693
  8
M2-0
  6
CONTINUOUS
 62
     3
 10
16739.07627591
 20
10315.413280009991
 30
0.0
  0
SEQEND
  5
694
  8
M2-0
  6
CONTINUOUS
 62
     3
  0
LINE
  5
502
  8
M2-0
  6
CONTINUOUS
 62
     3
 10
16798.604545149981
 20
10368.63608389
 30
0.0
 11
16798.604545149981
 21
10624.16860135
 31
0.0
  0
LINE
  5
503
  8
M2-0
  6
CONTINUOUS
 62
     3
 10
16913.275922690002
 20
10368.63608389
 30
0.0
 11
16913.275922690002
 21
10579.129219500001
 31
0.0
  0
POLYLINE
  5
504
  8
M2-0
  6
CONTINUOUS
 62
     3
 66
     1
 10
0.0
 20
0.0
 30
0.0
  0
VERTEX
  5
695
  8
M2-0
  6
CONTINUOUS
 62
     3
 10
16927.764810090001
 20
10382.41836956999
 30
0.0
  0
VERTEX
  5
696
  8
M2-0
  6
CONTINUOUS
 62
     3
 10
16913.275922690002
 20
10378.536083889991
 30
0.0
  0
VERTEX
  5
697
  8
M2-0
  6
CONTINUOUS
 62
     3
 10
16927.764810090001
 20
10374.65379821
 30
0.0
  0
SEQEND
  5
698
  8
M2-0
  6
CONTINUOUS
 62
     3
  0
POLYLINE
  5
509
  8
M2-0
  6
CONTINUOUS
 62
     3
 66
     1
 10
0.0
 20
0.0
 30
0.0
  0
VERTEX
  5
699
  8
M2-0
  6
CONTINUOUS
 62
     3
 10
16784.115657750001
 20
10374.65379821
 30
0.0
  0
VERTEX
  5
69A
  8
M2-0
  6
CONTINUOUS
 62
     3
 10
16798.604545149981
 20
10378.536083889991
 30
0.0
  0
VERTEX
  5
69B
  8
M2-0
  6
CONTINUOUS
 62
     3
 10
16784.115657750001
 20
10382.41836956999
 30
0.0
  0
SEQEND
  5
69C
  8
M2-0
  6
CONTINUOUS
 62
     3
  0
LINE
  5
50E
  8
M2-0
  6
CONTINUOUS
 62
     3
 10
16768.604545149999
 20
10378.536083889991
 30
0.0
 11
16976.954764639999
 21
10378.536083889991
 31
0.0
  0
LINE
  5
50F
  8
M2-0
  6
CONTINUOUS
 62
     3
 10
16814.725689809991
 20
10434.010280329991
 30
0.0
 11
16814.725689809991
 21
10640.289746009979
 31
0.0
  0
LINE
  5
510
  8
M2-0
  6
CONTINUOUS
 62
     3
 10
16913.275922690002
 20
10434.010280329991
 30
0.0
 11
16913.275922690002
 21
10579.129219500001
 31
0.0
  0
POLYLINE
  5
511
  8
M2-0
  6
CONTINUOUS
 62
     3
 66
     1
 10
0.0
 20
0.0
 30
0.0
  0
VERTEX
  5
69D
  8
M2-0
  6
CONTINUOUS
 62
     3
 10
16927.764810090001
 20
10447.792566010001
 30
0.0
  0
VERTEX
  5
69E
  8
M2-0
  6
CONTINUOUS
 62
     3
 10
16913.275922690002
 20
10443.91028032999
 30
0.0
  0
VERTEX
  5
69F
  8
M2-0
  6
CONTINUOUS
 62
     3
 10
16927.764810090001
 20
10440.02799466
 30
0.0
  0
SEQEND
  5
6A0
  8
M2-0
  6
CONTINUOUS
 62
     3
  0
POLYLINE
  5
516
  8
M2-0
  6
CONTINUOUS
 62
     3
 66
     1
 10
0.0
 20
0.0
 30
0.0
  0
VERTEX
  5
6A1
  8
M2-0
  6
CONTINUOUS
 62
     3
 10
16800.23680242
 20
10440.02799466
 30
0.0
  0
VERTEX
  5
6A2
  8
M2-0
  6
CONTINUOUS
 62
     3
 10
16814.725689809991
 20
10443.91028032999
 30
0.0
  0
VERTEX
  5
6A3
  8
M2-0
  6
CONTINUOUS
 62
     3
 10
16800.23680242
 20
10447.792566010001
 30
0.0
  0
SEQEND
  5
6A4
  8
M2-0
  6
CONTINUOUS
 62
     3
  0
LINE
  5
51B
  8
M2-0
  6
CONTINUOUS
 62
     3
 10
16784.725689809991
 20
10443.91028032999
 30
0.0
 11
16961.648188409999
 21
10443.91028032999
 31
0.0
  0
POLYLINE
  5
51C
  8
M2-0
  6
CONTINUOUS
 62
     3
 66
     1
 10
0.0
 20
0.0
 30
0.0
  0
VERTEX
  5
6A5
  8
M2-0
  6
CONTINUOUS
 62
     3
 10
16927.764810090001
 20
10511.47432620998
 30
0.0
  0
VERTEX
  5
6A6
  8
M2-0
  6
CONTINUOUS
 62
     3
 10
16913.275922690002
 20
10507.59204053
 30
0.0
  0
VERTEX
  5
6A7
  8
M2-0
  6
CONTINUOUS
 62
     3
 10
16927.764810090001
 20
10503.70975486
 30
0.0
  0
SEQEND
  5
6A8
  8
M2-0
  6
CONTINUOUS
 62
     3
  0
POLYLINE
  5
521
  8
M2-0
  6
CONTINUOUS
 62
     3
 66
     1
 10
0.0
 20
0.0
 30
0.0
  0
VERTEX
  5
6A9
  8
M2-0
  6
CONTINUOUS
 62
     3
 10
16829.02026252
 20
10503.70975486
 30
0.0
  0
VERTEX
  5
6AA
  8
M2-0
  6
CONTINUOUS
 62
     3
 10
16843.509149919992
 20
10507.59204053
 30
0.0
  0
VERTEX
  5
6AB
  8
M2-0
  6
CONTINUOUS
 62
     3
 10
16829.02026252
 20
10511.47432620998
 30
0.0
  0
SEQEND
  5
6AC
  8
M2-0
  6
CONTINUOUS
 62
     3
  0
LINE
  5
526
  8
M2-0
  6
CONTINUOUS
 62
     3
 10
16943.275922690002
 20
10507.59204053
 30
0.0
 11
16813.509149919999
 21
10507.59204053
 31
0.0
  0
LINE
  5
527
  8
M2-0
  6
CONTINUOUS
 62
     3
 10
16843.509149919992
 20
10497.692040530001
 30
0.0
 11
16843.509149919992
 21
10669.07320612
 31
0.0
  0
LINE
  5
528
  8
M2-0
  6
CONTINUOUS
 62
     3
 10
16913.275922690002
 20
10497.692040530001
 30
0.0
 11
16913.275922690002
 21
10579.129219500001
 31
0.0
  0
POINT
  5
529
  8
M2-0
  6
CENTER
 62
     4
 10
15674.862676590001
 20
10758.914654289991
 30
0.0
  0
LINE
  5
52A
  8
M2-0
  6
CENTER
 62
     4
 10
15605.12122841999
 20
10689.17320611998
 30
0.0
 11
15744.604124760001
 21
10828.656102459991
 31
0.0
  0
LINE
  5
52B
  8
M2-0
  6
CENTER
 62
     4
 10
15515.16267659
 20
10419.373206120001
 30
0.0
 11
15560.16267659
 21
10626.973206119999
 31
0.0
  0
LINE
  5
52C
  8
M2-0
  6
CENTER
 62
     4
 10
15789.56267659
 20
10890.85610246
 30
0.0
 11
15834.56267659
 21
11098.456102460001
 31
0.0
  0
ARC
  5
52D
  8
M2-0
  6
CENTER
 62
     4
 10
15638.06869878
 20
10957.14850712999
 30
0.0
 40
166.91343578999991
 50
309.66275437000002
 51
323.00708546999999
  0
ARC
  5
52E
  8
M2-0
  6
CENTER
 62
     4
 10
15658.152453919991
 20
10938.91334492
 30
0.0
 40
139.9219252899999
 50
324.02261092999993
 51
339.91233234999999
  0
ARC
  5
52F
  8
M2-0
  6
CENTER
 62
     4
 10
15685.866084019979
 20
10582.19873579
 30
0.0
 40
133.43949877
 50
143.67653076999991
 51
160.39453914000001
  0
ARC
  5
530
  8
M2-0
  6
CENTER
 62
     4
 10
15694.56489148
 20
10576.67674768
 30
0.0
 40
143.72063882
 50
128.48750132000001
 51
143.95706663999991
  0
LINE
  5
531
  8
M2-0
  6
CENTER
 62
     4
 10
16024.862676590001
 20
10419.373206120001
 30
0.0
 11
16024.862676590001
 21
11098.456102460001
 31
0.0
  0
LINE
  5
532
  8
M2-0
  6
CENTER
 62
     4
 10
15324.862676590001
 20
10419.373206120001
 30
0.0
 11
15324.862676590001
 21
11098.456102460001
 31
0.0
  0
LINE
  5
533
  8
M2-0
  6
CENTER
 62
     4
 10
15381.434352890001
 20
10463.073206119991
 30
0.0
 11
15381.434352890001
 21
10618.07320612
 31
0.0
  0
LINE
  5
534
  8
M2-0
  6
CENTER
 62
     4
 10
15701.434352890001
 20
10463.073206119991
 30
0.0
 11
15701.434352890001
 21
10618.07320612
 31
0.0
  0
LINE
  5
535
  8
M2-0
  6
CENTER
 62
     4
 10
15968.291000290001
 20
10899.75610246
 30
0.0
 11
15968.291000290001
 21
11054.756102459991
 31
0.0
  0
LINE
  5
536
  8
M2-0
  6
CENTER
 62
     4
 10
15648.291000290001
 20
10899.75610246
 30
0.0
 11
15648.291000290001
 21
11054.756102459991
 31
0.0
  0
LINE
  5
537
  8
M2-0
  6
CENTER
 62
     4
 10
15830.20625041998
 20
11054.756102459991
 30
0.0
 11
15968.291000290001
 21
11054.756102459991
 31
0.0
  0
LINE
  5
538
  8
M2-0
  6
CENTER
 62
     4
 10
15796.60798452
 20
10899.75610246
 30
0.0
 11
15968.291000290001
 21
10899.75610246
 31
0.0
  0
LINE
  5
539
  8
M2-0
  6
CENTER
 62
     4
 10
15648.291000290001
 20
11054.756102459991
 30
0.0
 11
15819.974016059999
 21
11054.756102459991
 31
0.0
  0
LINE
  5
53A
  8
M2-0
  6
CENTER
 62
     4
 10
15648.291000290001
 20
10899.75610246
 30
0.0
 11
15786.37575015999
 21
10899.75610246
 31
0.0
  0
LINE
  5
53B
  8
M2-0
  6
CENTER
 62
     4
 10
15381.434352890001
 20
10463.073206119991
 30
0.0
 11
15519.519102759999
 21
10463.073206119991
 31
0.0
  0
LINE
  5
53C
  8
M2-0
  6
CENTER
 62
     4
 10
15529.75133712
 20
10463.073206119991
 30
0.0
 11
15701.434352890001
 21
10463.073206119991
 31
0.0
  0
LINE
  5
53D
  8
M2-0
  6
CENTER
 62
     4
 10
15381.434352890001
 20
10618.07320612
 30
0.0
 11
15553.11736866
 21
10618.07320612
 31
0.0
  0
LINE
  5
53E
  8
M2-0
  6
CENTER
 62
     4
 10
15563.34960302
 20
10618.07320612
 30
0.0
 11
15701.434352890001
 21
10618.07320612
 31
0.0
  0
LINE
  5
53F
  8
M2-0
  6
CENTER
 62
     4
 10
16389.100652029982
 20
10949.310242989999
 30
0.0
 11
16366.1060235
 21
10845.834414610001
 31
0.0
  0
LINE
  5
540
  8
M2-0
  6
CENTER
 62
     4
 10
16462.31468154
 20
10933.040458650001
 30
0.0
 11
16439.32005301
 21
10829.564630270001
 31
0.0
  0
LINE
  5
541
  8
M2-0
  6
CENTER
 62
     4
 10
16389.100652029982
 20
10568.569714799991
 30
0.0
 11
16366.1060235
 21
10672.04554317998
 31
0.0
  0
LINE
  5
542
  8
M2-0
  6
CENTER
 62
     4
 10
16462.31468154
 20
10584.83949913998
 30
0.0
 11
16439.32005301
 21
10688.31532752
 31
0.0
  0
LINE
  5
543
  8
M2-0
  6
CENTER
 62
     4
 10
16499.25703008
 20
10873.61135644
 30
0.0
 11
16489.278229020001
 21
10828.706751670001
 31
0.0
  0
LINE
  5
544
  8
M2-0
  6
CENTER
 62
     4
 10
16489.278229020001
 20
10828.706751670001
 30
0.0
 11
16535.278229020001
 21
10828.706751670001
 31
0.0
  0
LINE
  5
545
  8
M2-0
  6
CENTER
 62
     4
 10
16535.278229020001
 20
10689.17320611998
 30
0.0
 11
16489.278229020001
 21
10689.17320611998
 31
0.0
  0
LINE
  5
546
  8
M2-0
  6
CENTER
 62
     4
 10
16489.278229020001
 20
10689.17320611998
 30
0.0
 11
16499.25703008
 21
10644.268601350001
 31
0.0
  0
LINE
  5
547
  8
M2-0
  6
CENTER
 62
     4
 10
16489.278229020001
 20
10828.706751670001
 30
0.0
 11
16525.16014987
 21
10857.490214909991
 31
0.0
  0
LINE
  5
548
  8
M2-0
  6
CENTER
 62
     4
 10
16489.278229020001
 20
10689.17320611998
 30
0.0
 11
16525.160152389992
 21
10660.389746009991
 31
0.0
  0
LINE
  5
549
  8
M2-0
  6
CENTER
 62
     4
 10
16913.275922690002
 20
10599.229219500001
 30
0.0
 11
16913.275922690002
 21
10918.650738279999
 31
0.0
  0
LINE
  5
54A
  8
M2-0
  6
CENTER
 62
     4
 10
16296.57981177
 20
10918.650738279999
 30
0.0
 11
17072.986682080002
 21
10918.650738279999
 31
0.0
  0
LINE
  5
54B
  8
M2-0
  6
CENTER
 62
     4
 10
16499.25703008
 20
10873.61135644
 30
0.0
 11
17027.94730023
 21
10873.61135644
 31
0.0
  0
LINE
  5
54C
  8
M2-0
  6
CENTER
 62
     4
 10
16535.278229020001
 20
10828.706751670001
 30
0.0
 11
16983.042695460001
 21
10828.706751670001
 31
0.0
  0
LINE
  5
54D
  8
M2-0
  6
CENTER
 62
     4
 10
16535.278229020001
 20
10689.17320611998
 30
0.0
 11
16843.509149919992
 21
10689.17320611998
 31
0.0
  0
LINE
  5
54E
  8
M2-0
  6
CENTER
 62
     4
 10
16499.25703008
 20
10644.268601350001
 30
0.0
 11
16798.604545149981
 21
10644.268601350001
 31
0.0
  0
LINE
  5
54F
  8
M2-0
  6
CENTER
 62
     4
 10
16296.57981177
 20
10599.229219500001
 30
0.0
 11
16753.565163300002
 21
10599.229219500001
 31
0.0
  0
LINE
  5
550
  8
M2-0
  6
CENTER
 62
     4
 10
16525.16014987
 20
10857.490214909991
 30
0.0
 11
17011.826158709991
 21
10857.490214909991
 31
0.0
  0
LINE
  5
551
  8
M2-0
  6
CENTER
 62
     4
 10
16525.160152389992
 20
10660.389746009991
 30
0.0
 11
16814.725689809991
 21
10660.389746009991
 31
0.0
  0
LINE
  5
552
  8
M2-0
  6
CENTER
 62
     4
 10
16529.278229020001
 20
10689.17320611998
 30
0.0
 11
16529.278229020001
 21
10828.706751670001
 31
0.0
  0
ARC
  5
553
  8
M2-0
  6
CENTER
 62
     4
 10
16489.278229020001
 20
10689.17320611998
 30
0.0
 40
40.0
 50
282.52880771000002
 51
0.0
  0
LINE
  5
554
  8
M2-0
  6
CENTER
 62
     4
 10
16295.278229019999
 20
10605.086341869999
 30
0.0
 11
16497.955447330001
 21
10650.125723709991
 31
0.0
  0
LINE
  5
555
  8
M2-0
  6
CENTER
 62
     4
 10
16295.278229019999
 20
10598.939978889999
 30
0.0
 11
16295.278229019999
 21
10918.939978889979
 31
0.0
  0
LINE
  5
556
  8
M2-0
  6
CENTER
 62
     4
 10
16295.278229019999
 20
10758.939978889979
 30
0.0
 11
16535.278229020001
 21
10758.939978889979
 31
0.0
  0
LINE
  5
557
  8
M2-0
  6
CENTER
 62
     4
 10
16295.278229019999
 20
10912.79361592
 30
0.0
 11
16497.955447330001
 21
10867.754234079999
 31
0.0
  0
ARC
  5
558
  8
M2-0
  6
CENTER
 62
     4
 10
16489.278229020001
 20
10828.706751670001
 30
0.0
 40
40.0
 50
0.0
 51
77.471192290000005
  0
LINE
  5
559
  8
M2-0
  6
CONTINUOUS
 62
     2
 10
15744.862676590001
 20
10733.914654289991
 30
0.0
 11
15744.862676590001
 21
10783.91465429
 31
0.0
  0
LINE
  5
55A
  8
M2-0
  6
CONTINUOUS
 62
     2
 10
15604.862676590001
 20
10733.914654289991
 30
0.0
 11
15604.862676590001
 21
10783.91465429
 31
0.0
  0
LINE
  5
55B
  8
M2-0
  6
CONTINUOUS
 62
     2
 10
15794.678793769999
 20
10890.85610246
 30
0.0
 11
16074.862676590001
 21
10890.85610246
 31
0.0
  0
LINE
  5
55C
  8
M2-0
  6
CONTINUOUS
 62
     2
 10
15752.2787305
 20
10828.656102459991
 30
0.0
 11
16074.862676590001
 21
10828.656102459991
 31
0.0
  0
LINE
  5
55D
  8
M2-0
  6
CONTINUOUS
 62
     2
 10
15681.933744399999
 20
10758.914654289991
 30
0.0
 11
16074.862676590001
 21
10758.914654289991
 31
0.0
  0
LINE
  5
55E
  8
M2-0
  6
CONTINUOUS
 62
     2
 10
15274.862676590001
 20
10689.17320611998
 30
0.0
 11
15598.050160610001
 21
10689.17320611998
 31
0.0
  0
LINE
  5
55F
  8
M2-0
  6
CONTINUOUS
 62
     2
 10
15274.862676590001
 20
10626.973206119999
 30
0.0
 11
15555.046559410001
 21
10626.973206119999
 31
0.0
  0
LINE
  5
560
  8
M2-0
  6
CONTINUOUS
 62
     2
 10
15565.27879377
 20
10626.973206119999
 30
0.0
 11
16074.862676590001
 21
10626.973206119999
 31
0.0
  0
LINE
  5
561
  8
M2-0
  6
CONTINUOUS
 62
     2
 10
15612.19229623
 20
10689.17320611998
 30
0.0
 11
16074.862676590001
 21
10689.17320611998
 31
0.0
  0
LINE
  5
562
  8
M2-0
  6
CONTINUOUS
 62
     2
 10
15274.862676590001
 20
10890.85610246
 30
0.0
 11
15784.44655941
 21
10890.85610246
 31
0.0
  0
LINE
  5
563
  8
M2-0
  6
CONTINUOUS
 62
     2
 10
15274.862676590001
 20
10828.656102459991
 30
0.0
 11
15737.53305695
 21
10828.656102459991
 31
0.0
  0
LINE
  5
564
  8
M2-0
  6
CONTINUOUS
 62
     2
 10
15274.862676590001
 20
10758.914654289991
 30
0.0
 11
15667.79160878
 21
10758.914654289991
 31
0.0
  0
LINE
  5
565
  8
M2-0
  6
CONTINUOUS
 62
     2
 10
15421.434352890001
 20
10463.073206119991
 30
0.0
 11
15421.434352890001
 21
10618.07320612
 31
0.0
  0
LINE
  5
566
  8
M2-0
  6
CONTINUOUS
 62
     2
 10
15496.434352890001
 20
10463.073206119991
 30
0.0
 11
15496.434352890001
 21
10618.07320612
 31
0.0
  0
LINE
  5
567
  8
M2-0
  6
CONTINUOUS
 62
     2
 10
15586.434352890001
 20
10463.073206119991
 30
0.0
 11
15586.434352890001
 21
10618.07320612
 31
0.0
  0
LINE
  5
568
  8
M2-0
  6
CONTINUOUS
 62
     2
 10
15661.434352890001
 20
10463.073206119991
 30
0.0
 11
15661.434352890001
 21
10618.07320612
 31
0.0
  0
LINE
  5
569
  8
M2-0
  6
CONTINUOUS
 62
     2
 10
15853.291000290001
 20
10899.75610246
 30
0.0
 11
15853.291000290001
 21
11054.756102459991
 31
0.0
  0
LINE
  5
56A
  8
M2-0
  6
CONTINUOUS
 62
     2
 10
15928.291000290001
 20
10899.75610246
 30
0.0
 11
15928.291000290001
 21
11054.756102459991
 31
0.0
  0
LINE
  5
56B
  8
M2-0
  6
CONTINUOUS
 62
     2
 10
15688.291000290001
 20
10899.75610246
 30
0.0
 11
15688.291000290001
 21
11054.756102459991
 31
0.0
  0
LINE
  5
56C
  8
M2-0
  6
CONTINUOUS
 62
     2
 10
15763.291000290001
 20
10899.75610246
 30
0.0
 11
15763.291000290001
 21
11054.756102459991
 31
0.0
  0
LINE
  5
56D
  8
M2-0
  6
CONTINUOUS
 62
     2
 10
15821.53573019
 20
11014.75610246
 30
0.0
 11
15968.291000290001
 21
11014.75610246
 31
0.0
  0
LINE
  5
56E
  8
M2-0
  6
CONTINUOUS
 62
     2
 10
15805.27850474998
 20
10939.75610246
 30
0.0
 11
15968.291000290001
 21
10939.75610246
 31
0.0
  0
LINE
  5
56F
  8
M2-0
  6
CONTINUOUS
 62
     2
 10
15648.291000290001
 20
11014.75610246
 30
0.0
 11
15811.303495820001
 21
11014.75610246
 31
0.0
  0
LINE
  5
570
  8
M2-0
  6
CONTINUOUS
 62
     2
 10
15648.291000290001
 20
10939.75610246
 30
0.0
 11
15795.046270389999
 21
10939.75610246
 31
0.0
  0
LINE
  5
571
  8
M2-0
  6
CONTINUOUS
 62
     2
 10
15554.67908279
 20
10578.07320612
 30
0.0
 11
15701.434352890001
 21
10578.07320612
 31
0.0
  0
LINE
  5
572
  8
M2-0
  6
CONTINUOUS
 62
     2
 10
15538.421857359999
 20
10503.073206119991
 30
0.0
 11
15701.434352890001
 21
10503.073206119991
 31
0.0
  0
LINE
  5
573
  8
M2-0
  6
CONTINUOUS
 62
     2
 10
15381.434352890001
 20
10578.07320612
 30
0.0
 11
15544.44684843
 21
10578.07320612
 31
0.0
  0
LINE
  5
574
  8
M2-0
  6
CONTINUOUS
 62
     2
 10
15381.434352890001
 20
10503.073206119991
 30
0.0
 11
15528.189622989999
 21
10503.073206119991
 31
0.0
  0
LINE
  5
575
  8
M2-0
  6
CONTINUOUS
 62
     2
 10
16027.862676590001
 20
10419.373206120001
 30
0.0
 11
16027.862676590001
 21
11098.456102460001
 31
0.0
  0
LINE
  5
576
  8
M2-0
  6
CONTINUOUS
 62
     2
 10
16021.862676590001
 20
10419.373206120001
 30
0.0
 11
16021.862676590001
 21
11098.456102460001
 31
0.0
  0
LINE
  5
577
  8
M2-0
  6
CONTINUOUS
 62
     2
 10
16011.862676590001
 20
10803.91465429
 30
0.0
 11
16011.862676590001
 21
10833.91465429
 31
0.0
  0
LINE
  5
578
  8
M2-0
  6
CONTINUOUS
 62
     2
 10
15996.862676590001
 20
10818.914654289991
 30
0.0
 11
16026.862676590001
 21
10818.914654289991
 31
0.0
  0
LINE
  5
579
  8
M2-0
  6
CONTINUOUS
 62
     2
 10
15327.862676590001
 20
10419.373206120001
 30
0.0
 11
15327.862676590001
 21
11098.456102460001
 31
0.0
  0
LINE
  5
57A
  8
M2-0
  6
CONTINUOUS
 62
     2
 10
15321.862676590001
 20
10419.373206120001
 30
0.0
 11
15321.862676590001
 21
11098.456102460001
 31
0.0
  0
TEXT
  5
57B
  8
M2-0
  6
CONTINUOUS
 62
     7
 10
15914.578358840001
 20
10258.43994859998
 30
0.0
 40
40.0000006
  1
U-RIB 320X240X6
  0
LINE
  5
57C
  8
M2-0
  6
CONTINUOUS
 62
     7
 10
16753.565163300002
 20
10599.229219500001
 30
0.0
 11
17072.986682080002
 21
10918.650738279999
 31
0.0
  0
LINE
  5
57D
  8
M2-0
  6
CONTINUOUS
 62
     7
 10
15274.862676590001
 20
11098.456102460001
 30
0.0
 11
15829.44655941
 21
11098.456102460001
 31
0.0
  0
LINE
  5
57E
  8
M2-0
  6
CONTINUOUS
 62
     7
 10
15839.678793769999
 20
11098.456102460001
 30
0.0
 11
16074.862676590001
 21
11098.456102460001
 31
0.0
  0
LINE
  5
57F
  8
M2-0
  6
CONTINUOUS
 62
     7
 10
15520.27879376999
 20
10419.373206120001
 30
0.0
 11
16074.862676590001
 21
10419.373206120001
 31
0.0
  0
LINE
  5
580
  8
M2-0
  6
CONTINUOUS
 62
     7
 10
15274.862676590001
 20
10419.373206120001
 30
0.0
 11
15510.046559410001
 21
10419.373206120001
 31
0.0
  0
LINE
  5
581
  8
M2-0
  6
CONTINUOUS
 62
     7
 10
15510.046559410001
 20
10419.373206120001
 30
0.0
 11
15555.34379302
 21
10628.34444386
 31
0.0
  0
LINE
  5
582
  8
M2-0
  6
CONTINUOUS
 62
     7
 10
15520.27879376999
 20
10419.373206120001
 30
0.0
 11
15564.980275329999
 21
10625.59604102
 31
0.0
  0
ARC
  5
583
  8
M2-0
  6
CONTINUOUS
 62
     7
 10
15685.866084019979
 20
10582.19873579
 30
0.0
 40
138.43949877
 50
143.6816000899999
 51
160.52912681999999
  0
ARC
  5
584
  8
M2-0
  6
CONTINUOUS
 62
     7
 10
15694.56489148
 20
10576.67674768
 30
0.0
 40
148.72063882
 50
128.59802864
 51
143.95235387
  0
ARC
  5
585
  8
M2-0
  6
CONTINUOUS
 62
     7
 10
15685.866084019979
 20
10582.19873579
 30
0.0
 40
128.43949877
 50
143.67107408000001
 51
160.25215592000001
  0
ARC
  5
586
  8
M2-0
  6
CONTINUOUS
 62
     7
 10
15694.56489148
 20
10576.67674768
 30
0.0
 40
138.72063882
 50
128.37104432000001
 51
143.96212593999991
  0
LINE
  5
587
  8
M2-0
  6
CONTINUOUS
 62
     7
 10
15608.453826839999
 20
10685.434736720001
 30
0.0
 11
15631.93374439999
 21
10708.91465429
 31
0.0
  0
LINE
  5
588
  8
M2-0
  6
CONTINUOUS
 62
     7
 10
15631.93374439999
 20
10708.91465429
 30
0.0
 11
15744.862676590001
 21
10708.91465429
 31
0.0
  0
LINE
  5
589
  8
M2-0
  6
CONTINUOUS
 62
     7
 10
15601.78511839
 20
10692.9081639
 30
0.0
 11
15617.79160878
 21
10708.91465429
 31
0.0
  0
LINE
  5
58A
  8
M2-0
  6
CONTINUOUS
 62
     7
 10
15604.862676590001
 20
10708.91465429
 30
0.0
 11
15617.79160878
 21
10708.91465429
 31
0.0
  0
ARC
  5
58B
  8
M2-0
  6
CONTINUOUS
 62
     7
 10
15604.862676590001
 20
10758.914654289991
 30
0.0
 40
50.0
 50
90.0
 51
270.0
  0
LINE
  5
58C
  8
M2-0
  6
CONTINUOUS
 62
     7
 10
15604.862676590001
 20
10808.91465429
 30
0.0
 11
15717.79160878
 21
10808.91465429
 31
0.0
  0
LINE
  5
58D
  8
M2-0
  6
CONTINUOUS
 62
     7
 10
15731.93374439999
 20
10808.91465429
 30
0.0
 11
15744.862676590001
 21
10808.91465429
 31
0.0
  0
ARC
  5
58E
  8
M2-0
  6
CONTINUOUS
 62
     7
 10
15744.862676590001
 20
10758.914654289991
 30
0.0
 40
50.0
 50
270.0
 51
90.0
  0
LINE
  5
58F
  8
M2-0
  6
CONTINUOUS
 62
     7
 10
15717.79160878
 20
10808.91465429
 30
0.0
 11
15741.234637670001
 21
10832.35768318
 31
0.0
  0
LINE
  5
590
  8
M2-0
  6
CONTINUOUS
 62
     7
 10
15731.93374439999
 20
10808.91465429
 30
0.0
 11
15747.97608611999
 21
10824.95699601
 31
0.0
  0
ARC
  5
591
  8
M2-0
  6
CONTINUOUS
 62
     7
 10
15638.06869878
 20
10957.14850712999
 30
0.0
 40
171.91343578999991
 50
309.74099772999989
 51
323.02183316000009
  0
ARC
  5
592
  8
M2-0
  6
CONTINUOUS
 62
     7
 10
15638.06869878
 20
10957.14850712999
 30
0.0
 40
161.91343578999991
 50
309.58091144999992
 51
322.99138155000009
  0
ARC
  5
593
  8
M2-0
  6
CONTINUOUS
 62
     7
 10
15658.152453919991
 20
10938.91334492
 30
0.0
 40
134.9219252899999
 50
324.04140024999992
 51
339.76783469999992
  0
ARC
  5
594
  8
M2-0
  6
CONTINUOUS
 62
     7
 10
15658.152453919991
 20
10938.91334492
 30
0.0
 40
144.92192528999979
 50
324.00506749999988
 51
340.04927437999999
  0
LINE
  5
595
  8
M2-0
  6
CONTINUOUS
 62
     7
 10
15784.74956523999
 20
10892.25396935
 30
0.0
 11
15829.44655941
 21
11098.456102460001
 31
0.0
  0
LINE
  5
596
  8
M2-0
  6
CONTINUOUS
 62
     7
 10
15794.37709428999
 20
10889.46426217
 30
0.0
 11
15839.678793769999
 21
11098.456102460001
 31
0.0
  0
LINE
  5
597
  8
M2-0
  6
CONTINUOUS
 62
     7
 10
16296.57981177
 20
10918.650738279999
 30
0.0
 11
16499.25703008
 21
10873.61135644
 31
0.0
  0
LINE
  5
598
  8
M2-0
  6
CONTINUOUS
 62
     7
 10
16295.278229019999
 20
10912.79361592
 30
0.0
 11
16296.57981177
 21
10918.650738279999
 31
0.0
  0
ARC
  5
599
  8
M2-0
  6
CONTINUOUS
 62
     7
 10
16489.278229020001
 20
10828.706751670001
 30
0.0
 40
46.0
 50
0.0
 51
77.471192290000005
  0
LINE
  5
59A
  8
M2-0
  6
CONTINUOUS
 62
     7
 10
16535.278229020001
 20
10689.17320611998
 30
0.0
 11
16535.278229020001
 21
10828.706751670001
 31
0.0
  0
ARC
  5
59B
  8
M2-0
  6
CONTINUOUS
 62
     7
 10
16489.278229020001
 20
10689.17320611998
 30
0.0
 40
46.0
 50
282.52880771000002
 51
0.0
  0
LINE
  5
59C
  8
M2-0
  6
CONTINUOUS
 62
     7
 10
16296.57981177
 20
10599.229219500001
 30
0.0
 11
16499.25703008
 21
10644.268601350001
 31
0.0
  0
LINE
  5
59D
  8
M2-0
  6
CONTINUOUS
 62
     7
 10
16295.278229019999
 20
10605.086341869999
 30
0.0
 11
16296.57981177
 21
10599.229219500001
 31
0.0
  0
CIRCLE
  5
59E
  8
M2-0
  6
CONTINUOUS
 62
     2
 10
15421.434352890001
 20
10503.073206119991
 30
0.0
 40
13.25
  0
CIRCLE
  5
59F
  8
M2-0
  6
CONTINUOUS
 62
     2
 10
15496.434352890001
 20
10503.073206119991
 30
0.0
 40
13.25
  0
CIRCLE
  5
5A0
  8
M2-0
  6
CONTINUOUS
 62
     2
 10
15421.434352890001
 20
10578.07320612
 30
0.0
 40
13.25
  0
CIRCLE
  5
5A1
  8
M2-0
  6
CONTINUOUS
 62
     2
 10
15496.434352890001
 20
10578.07320612
 30
0.0
 40
13.25
  0
CIRCLE
  5
5A2
  8
M2-0
  6
CONTINUOUS
 62
     2
 10
15586.434352890001
 20
10503.073206119991
 30
0.0
 40
13.25
  0
CIRCLE
  5
5A3
  8
M2-0
  6
CONTINUOUS
 62
     2
 10
15661.434352890001
 20
10503.073206119991
 30
0.0
 40
13.25
  0
CIRCLE
  5
5A4
  8
M2-0
  6
CONTINUOUS
 62
     2
 10
15586.434352890001
 20
10578.07320612
 30
0.0
 40
13.25
  0
CIRCLE
  5
5A5
  8
M2-0
  6
CONTINUOUS
 62
     2
 10
15661.434352890001
 20
10578.07320612
 30
0.0
 40
13.25
  0
CIRCLE
  5
5A6
  8
M2-0
  6
CONTINUOUS
 62
     2
 10
15853.291000290001
 20
10939.75610246
 30
0.0
 40
13.25
  0
CIRCLE
  5
5A7
  8
M2-0
  6
CONTINUOUS
 62
     2
 10
15928.291000290001
 20
10939.75610246
 30
0.0
 40
13.25
  0
CIRCLE
  5
5A8
  8
M2-0
  6
CONTINUOUS
 62
     2
 10
15853.291000290001
 20
11014.75610246
 30
0.0
 40
13.25
  0
CIRCLE
  5
5A9
  8
M2-0
  6
CONTINUOUS
 62
     2
 10
15928.291000290001
 20
11014.75610246
 30
0.0
 40
13.25
  0
CIRCLE
  5
5AA
  8
M2-0
  6
CONTINUOUS
 62
     2
 10
15688.291000290001
 20
10939.75610246
 30
0.0
 40
13.25
  0
CIRCLE
  5
5AB
  8
M2-0
  6
CONTINUOUS
 62
     2
 10
15763.291000290001
 20
10939.75610246
 30
0.0
 40
13.25
  0
CIRCLE
  5
5AC
  8
M2-0
  6
CONTINUOUS
 62
     2
 10
15688.291000290001
 20
11014.75610246
 30
0.0
 40
13.25
  0
CIRCLE
  5
5AD
  8
M2-0
  6
CONTINUOUS
 62
     2
 10
15763.291000290001
 20
11014.75610246
 30
0.0
 40
13.25
  0
CIRCLE
  5
5AE
  8
M2-0
  6
CONTINUOUS
 62
     2
 10
16011.862676590001
 20
10818.914654289991
 30
0.0
 40
7.0
  0
ENDSEC
  0
EOF
