  0
SECTION
  2
HEADER
  9
$ACADVER
  1
AC1009
  9
$INSBASE
 10
0.0
 20
0.0
 30
0.0
  9
$EXTMIN
 10
6462.9866513292436
 20
9340.5967469729876
 30
-0.0015258207003583
  9
$EXTMAX
 10
7333.1459860525101
 20
9955.7670579487694
 30
0.0000000349246037
  9
$LIMMIN
 10
6289.0662924999997
 20
9039.1818762700004
  9
$LIMMAX
 10
7507.0663392099996
 20
10257.18192298
  9
$ORTHOMODE
 70
     0
  9
$REGENMODE
 70
     1
  9
$FILLMODE
 70
     1
  9
$QTEXTMODE
 70
     0
  9
$MIRRTEXT
 70
     1
  9
$DRAGMODE
 70
     2
  9
$LTSCALE
 40
1.0
  9
$OSMODE
 70
    37
  9
$ATTMODE
 70
     1
  9
$TEXTSIZE
 40
0.2
  9
$TRACEWID
 40
0.05
  9
$TEXTSTYLE
  7
STANDARD
  9
$CLAYER
  8
41
  9
$CELTYPE
  6
BYLAYER
  9
$CECOLOR
 62
   256
  9
$DIMSCALE
 40
1.0
  9
$DIMASZ
 40
1.0
  9
$DIMEXO
 40
0.0625
  9
$DIMDLI
 40
0.38
  9
$DIMRND
 40
0.0
  9
$DIMDLE
 40
0.0
  9
$DIMEXE
 40
0.18
  9
$DIMTP
 40
0.0
  9
$DIMTM
 40
0.0
  9
$DIMTXT
 40
3.0
  9
$DIMCEN
 40
0.09
  9
$DIMTSZ
 40
0.0
  9
$DIMTOL
 70
     0
  9
$DIMLIM
 70
     0
  9
$DIMTIH
 70
     1
  9
$DIMTOH
 70
     1
  9
$DIMSE1
 70
     0
  9
$DIMSE2
 70
     0
  9
$DIMTAD
 70
     0
  9
$DIMZIN
 70
     0
  9
$DIMBLK
  1

  9
$DIMASO
 70
     1
  9
$DIMSHO
 70
     0
  9
$DIMPOST
  1
        
  9
$DIMAPOST
  1
        
  9
$DIMALT
 70
     0
  9
$DIMALTD
 70
     4
  9
$DIMALTF
 40
25.399999999999999
  9
$DIMLFAC
 40
1.0
  9
$DIMTOFL
 70
     0
  9
$DIMTVP
 40
0.0
  9
$DIMTIX
 70
     0
  9
$DIMSOXD
 70
     0
  9
$DIMSAH
 70
     0
  9
$DIMBLK1
  1

  9
$DIMBLK2
  1

  9
$DIMSTYLE
  2
STANDARD
  9
$DIMCLRD
 70
     0
  9
$DIMCLRE
 70
     0
  9
$DIMCLRT
 70
     0
  9
$DIMTFAC
 40
1.0
  9
$DIMGAP
 40
0.09
  9
$LUNITS
 70
     2
  9
$LUPREC
 70
     4
  9
$SKETCHINC
 40
0.1
  9
$FILLETRAD
 40
0.0
  9
$AUNITS
 70
     1
  9
$AUPREC
 70
     4
  9
$MENU
  1
        
  9
$ELEVATION
 40
0.0
  9
$PELEVATION
 40
0.0
  9
$THICKNESS
 40
0.0
  9
$LIMCHECK
 70
     0
  9
$BLIPMODE
 70
     0
  9
$CHAMFERA
 40
0.0
  9
$CHAMFERB
 40
0.0
  9
$SKPOLY
 70
     0
  9
$TDCREATE
 40
2452191.034893367
  9
$TDUPDATE
 40
2452191.0352044669
  9
$TDINDWG
 40
0.000311331
  9
$TDUSRTIMER
 40
0.000311331
  9
$USRTIMER
 70
     1
  9
$ANGBASE
 50
0.0
  9
$ANGDIR
 70
     0
  9
$PDMODE
 70
     0
  9
$PDSIZE
 40
0.0
  9
$PLINEWID
 40
0.0
  9
$COORDS
 70
     1
  9
$SPLFRAME
 70
     0
  9
$SPLINETYPE
 70
     6
  9
$SPLINESEGS
 70
     8
  9
$ATTDIA
 70
     0
  9
$ATTREQ
 70
     1
  9
$HANDLING
 70
  4097
  9
$HANDSEED
  5
8B
  9
$SURFTAB1
 70
     6
  9
$SURFTAB2
 70
     6
  9
$SURFTYPE
 70
     6
  9
$SURFU
 70
     6
  9
$SURFV
 70
     6
  9
$UCSNAME
  2

  9
$UCSORG
 10
0.0
 20
0.0
 30
0.0
  9
$UCSXDIR
 10
1.0
 20
0.0
 30
0.0
  9
$UCSYDIR
 10
0.0
 20
1.0
 30
0.0
  9
$PUCSNAME
  2

  9
$PUCSORG
 10
0.0
 20
0.0
 30
0.0
  9
$PUCSXDIR
 10
1.0
 20
0.0
 30
0.0
  9
$PUCSYDIR
 10
0.0
 20
1.0
 30
0.0
  9
$USERI1
 70
     0
  9
$USERI2
 70
     0
  9
$USERI3
 70
     0
  9
$USERI4
 70
     0
  9
$USERI5
 70
     0
  9
$USERR1
 40
0.0
  9
$USERR2
 40
0.0
  9
$USERR3
 40
0.0
  9
$USERR4
 40
0.0
  9
$USERR5
 40
0.0
  9
$WORLDVIEW
 70
     1
  9
$SHADEDGE
 70
     3
  9
$SHADEDIF
 70
    70
  9
$TILEMODE
 70
     1
  9
$MAXACTVP
 70
    64
  9
$PLIMCHECK
 70
     0
  9
$PEXTMIN
 10
1.0000000000000000E+020
 20
1.0000000000000000E+020
 30
1.0000000000000000E+020
  9
$PEXTMAX
 10
-1.0000000000000000E+020
 20
-1.0000000000000000E+020
 30
-1.0000000000000000E+020
  9
$PLIMMIN
 10
0.0
 20
0.0
  9
$PLIMMAX
 10
12.0
 20
9.0
  9
$UNITMODE
 70
     0
  9
$VISRETAIN
 70
     1
  9
$PLINEGEN
 70
     0
  9
$PSLTSCALE
 70
     1
  0
ENDSEC
  0
SECTION
  2
TABLES
  0
TABLE
  2
VPORT
 70
     2
  0
VPORT
  2
*ACTIVE
 70
     0
 10
0.0
 20
0.0
 11
1.0
 21
1.0
 12
6898.0663158549996
 22
9648.1818996250004
 13
0.0
 23
0.0
 14
1.0
 24
1.0
 15
0.0
 25
0.0
 16
0.0
 26
0.0
 36
1.0
 17
0.0
 27
0.0
 37
0.0
 40
1227.3692778385371
 41
1.580231065468549
 42
50.0
 43
0.0
 44
0.0
 50
0.0
 51
0.0
 71
     0
 72
   100
 73
     1
 74
     1
 75
     0
 76
     0
 77
     0
 78
     0
  0
ENDTAB
  0
TABLE
  2
LTYPE
 70
     6
  0
LTYPE
  2
CONTINUOUS
 70
     0
  3
Solid line
 72
    65
 73
     0
 40
0.0
  0
LTYPE
  2
DOT
 70
     0
  3
Dot line
 72
    65
 73
     2
 40
1.0
 49
0.0
 49
-1.0
  0
LTYPE
  2
HIDDEN
 70
     0
  3
Hidden line
 72
    65
 73
     2
 40
1.5
 49
1.0
 49
-0.5
  0
LTYPE
  2
DASHED
 70
     0
  3
Dashed line
 72
    65
 73
     2
 40
3.0
 49
2.0
 49
-1.0
  0
LTYPE
  2
CENTER
 70
     0
  3
Center line
 72
    65
 73
     4
 40
8.0
 49
5.0
 49
-1.0
 49
1.0
 49
-1.0
  0
LTYPE
  2
PHANTOM
 70
     0
  3
Phantom line
 72
    65
 73
     6
 40
10.0
 49
5.0
 49
-1.0
 49
1.0
 49
-1.0
 49
1.0
 49
-1.0
  0
ENDTAB
  0
TABLE
  2
LAYER
 70
     9
  0
LAYER
  2
0
 70
     0
 62
     5
  6
CONTINUOUS
  0
LAYER
  2
41
 70
     0
 62
     7
  6
CONTINUOUS
  0
LAYER
  2
1
 70
     0
 62
     1
  6
CONTINUOUS
  0
LAYER
  2
2
 70
     0
 62
     7
  6
CONTINUOUS
  0
LAYER
  2
3
 70
     0
 62
     3
  6
CONTINUOUS
  0
LAYER
  2
4
 70
     0
 62
     6
  6
CONTINUOUS
  0
LAYER
  2
5
 70
     0
 62
     2
  6
CONTINUOUS
  0
LAYER
  2
6
 70
     0
 62
     4
  6
CONTINUOUS
  0
LAYER
  2
M2-0
 70
     0
 62
     7
  6
CONTINUOUS
  0
ENDTAB
  0
TABLE
  2
STYLE
 70
     2
  0
STYLE
  2
STANDARD
 70
     0
 40
0.0
 41
1.0
 50
0.0
 71
     0
 42
0.2
  3
TXT
  4
BIGFONT
  0
STYLE
  2
STANDARD1
 70
     4
 40
0.0
 41
1.0
 50
0.0
 71
     0
 42
0.2
  3
TXT
  4
BIGFONT
  0
ENDTAB
  0
TABLE
  2
VIEW
 70
     0
  0
ENDTAB
  0
TABLE
  2
UCS
 70
     0
  0
ENDTAB
  0
TABLE
  2
APPID
 70
     1
  0
APPID
  2
ACAD
 70
     0
  0
ENDTAB
  0
TABLE
  2
DIMSTYLE
 70
     1
  0
DIMSTYLE
  2
STANDARD
 70
     0
  3

  4

  5

  6

  7

 40
1.0
 41
0.18
 42
0.0625
 43
0.38
 44
0.18
 45
0.0
 46
0.0
 47
0.0
 48
0.0
140
0.18
141
0.09
142
0.0
143
25.399999999999999
144
1.0
145
0.0
146
1.0
147
0.09
 71
     0
 72
     0
 73
     1
 74
     1
 75
     0
 76
     0
 77
     0
 78
     0
170
     0
171
     2
172
     0
173
     0
174
     0
175
     0
176
     0
177
     0
178
     0
  0
ENDTAB
  0
ENDSEC
  0
SECTION
  2
BLOCKS
  0
BLOCK
  8
0
  2
$MODEL_SPACE
 70
     0
 10
0.0
 20
0.0
 30
0.0
  3
$MODEL_SPACE
  1

  0
ENDBLK
  5
20
  8
0
  0
BLOCK
 67
     1
  8
0
  2
$PAPER_SPACE
 70
     0
 10
0.0
 20
0.0
 30
0.0
  3
$PAPER_SPACE
  1

  0
ENDBLK
  5
1C
 67
     1
  8
0
  0
ENDSEC
  0
SECTION
  2
ENTITIES
  0
LINE
  5
33
  8
M2-0
  6
CONTINUOUS
 62
     1
 10
6835.7995433100004
 20
9545.3252634799992
 30
0.0
 11
6975.3330888600012
 21
9545.3252634799992
 31
0.0
  0
ARC
  5
34
  8
M2-0
  6
CONTINUOUS
 62
     1
 10
6975.3330888600012
 20
9591.3252634799992
 30
0.0
 40
46.0
 50
270.0
 51
347.47119228999992
  0
LINE
  5
35
  8
M2-0
  6
CONTINUOUS
 62
     1
 10
7065.2770754800003
 20
9784.0236807300007
 30
0.0
 11
7020.2376936299997
 21
9581.3464624200005
 31
0.0
  0
LINE
  5
36
  8
M2-0
  6
CONTINUOUS
 62
     1
 10
7059.4199531200002
 20
9785.3252634799992
 30
0.0
 11
7065.2770754800003
 21
9784.0236807300007
 31
0.0
  0
LINE
  5
37
  8
M2-0
  6
CONTINUOUS
 62
     1
 10
7059.4199531200002
 20
9785.3252634799992
 30
0.0
 11
7014.3805712699996
 21
9582.64804516
 31
0.0
  0
ARC
  5
38
  8
M2-0
  6
CONTINUOUS
 62
     1
 10
6975.3330888600012
 20
9591.3252634799992
 30
0.0
 40
40.0
 50
270.0
 51
347.47119228999992
  0
LINE
  5
39
  8
M2-0
  6
CONTINUOUS
 62
     1
 10
6835.7995433100004
 20
9551.3252634799992
 30
0.0
 11
6975.3330888600012
 21
9551.3252634799992
 31
0.0
  0
ARC
  5
3A
  8
M2-0
  6
CONTINUOUS
 62
     1
 10
6835.7995433100004
 20
9591.3252634799992
 30
0.0
 40
40.0
 50
192.52880771
 51
270.0
  0
LINE
  5
3B
  8
M2-0
  6
CONTINUOUS
 62
     1
 10
6751.7126790599996
 20
9785.3252634799992
 30
0.0
 11
6796.7520609100011
 21
9582.64804516
 31
0.0
  0
LINE
  5
3C
  8
M2-0
  6
CONTINUOUS
 62
     1
 10
6751.7126790599996
 20
9785.3252634799992
 30
0.0
 11
6745.8555567000003
 21
9784.0236807300007
 31
0.0
  0
LINE
  5
3D
  8
M2-0
  6
CONTINUOUS
 62
     1
 10
6745.8555567000003
 20
9784.0236807300007
 30
0.0
 11
6790.894938540001
 21
9581.3464624200005
 31
0.0
  0
ARC
  5
3E
  8
M2-0
  6
CONTINUOUS
 62
     1
 10
6835.7995433100004
 20
9591.3252634799992
 30
0.0
 40
46.0
 50
192.52880771
 51
270.0
  0
TEXT
  5
3F
  8
M2-0
  6
CONTINUOUS
 62
     2
 10
6630.4103105300001
 20
9386.6073807499997
 30
0.0
 40
24.000000360000001
  1
U-RIB 320X240X6
  0
LINE
  5
40
  8
M2-0
  6
PHANTOM
 62
   254
 10
6905.5663160900012
 20
9785.3252634799992
 30
0.0
 11
6905.5663160900012
 21
9545.3252634799992
 31
0.0
  0
LINE
  5
41
  8
M2-0
  6
PHANTOM
 62
   254
 10
6745.5663160900003
 20
9785.3252634799992
 30
0.0
 11
7065.5663160900003
 21
9785.3252634799992
 31
0.0
  0
TEXT
  5
42
  8
M2-0
  6
CONTINUOUS
 62
   254
 10
6830.5663160900012
 20
9456.7383672300002
 30
0.0
 40
24.000000360000001
  1
２１３．３
  0
TEXT
  5
43
  8
M2-0
  6
CONTINUOUS
 62
   254
 10
7059.3415192399998
 20
9679.2380896400009
 30
0.0
 40
24.000000360000001
  1
６
 50
347.47119228999998
  0
TEXT
  5
44
  8
M2-0
  6
CONTINUOUS
 62
   254
 10
6816.8414635900008
 20
9581.9619492999991
 30
0.0
 40
24.000000360000001
  1
Ｒ４０
 50
54.202851809999999
  0
TEXT
  5
45
  8
M2-0
  6
CONTINUOUS
 62
   254
 10
6601.7316056899999
 20
9620.3252634799992
 30
0.0
 40
24.000000360000001
  1
２４０
 50
90.0
  0
TEXT
  5
46
  8
M2-0
  6
CONTINUOUS
 62
   254
 10
6860.5663160900003
 20
9897.9774480300002
 30
0.0
 40
24.000000360000001
  1
３２０
  0
POLYLINE
  5
47
  8
M2-0
  6
CONTINUOUS
 62
   254
 66
     1
 10
0.0
 20
0.0
 30
0.0
 70
     8
  0
VERTEX
  5
48
  8
M2-0
  6
CONTINUOUS
 62
   254
 10
6615.5138913700002
 20
9770.8363760800003
 30
0.0
 70
    32
  0
VERTEX
  5
49
  8
M2-0
  6
CONTINUOUS
 62
   254
 10
6611.6316056899987
 20
9785.3252634799992
 30
0.0
 70
    32
  0
VERTEX
  5
4A
  8
M2-0
  6
CONTINUOUS
 62
   254
 10
6607.7493200099989
 20
9770.8363760800003
 30
0.0
 70
    32
  0
SEQEND
  5
4B
  8
M2-0
 62
   254
  0
POLYLINE
  5
4C
  8
M2-0
  6
CONTINUOUS
 62
   254
 66
     1
 10
0.0
 20
0.0
 30
0.0
 70
     8
  0
VERTEX
  5
4D
  8
M2-0
  6
CONTINUOUS
 62
   254
 10
6607.7493200099989
 20
9559.8141508699991
 30
0.0
 70
    32
  0
VERTEX
  5
4E
  8
M2-0
  6
CONTINUOUS
 62
   254
 10
6611.6316056899987
 20
9545.3252634799992
 30
0.0
 70
    32
  0
VERTEX
  5
4F
  8
M2-0
  6
CONTINUOUS
 62
   254
 10
6615.5138913700002
 20
9559.8141508699991
 30
0.0
 70
    32
  0
SEQEND
  5
50
  8
M2-0
 62
   254
  0
LINE
  5
51
  8
M2-0
  6
CONTINUOUS
 62
   254
 10
6611.6316056899987
 20
9785.3252634799992
 30
0.0
 11
6611.6316056899987
 21
9545.3252634799992
 31
0.0
  0
LINE
  5
52
  8
M2-0
  6
CONTINUOUS
 62
   254
 10
6601.7316056899999
 20
9545.3252634799992
 30
0.0
 11
6815.713708610001
 21
9545.3252634799992
 31
0.0
  0
LINE
  5
53
  8
M2-0
  6
CONTINUOUS
 62
   254
 10
6601.7316056899999
 20
9785.3252634799992
 30
0.0
 11
6723.46631609
 21
9785.3252634799992
 31
0.0
  0
POLYLINE
  5
54
  8
M2-0
  6
CONTINUOUS
 62
   254
 66
     1
 10
0.0
 20
0.0
 30
0.0
 70
     8
  0
VERTEX
  5
55
  8
M2-0
  6
CONTINUOUS
 62
   254
 10
6813.3885368099991
 20
9450.7206529000014
 30
0.0
 70
    32
  0
VERTEX
  5
56
  8
M2-0
  6
CONTINUOUS
 62
   254
 10
6798.8996494200001
 20
9446.8383672300006
 30
0.0
 70
    32
  0
VERTEX
  5
57
  8
M2-0
  6
CONTINUOUS
 62
   254
 10
6813.3885368099991
 20
9442.9560815500008
 30
0.0
 70
    32
  0
SEQEND
  5
58
  8
M2-0
 62
   254
  0
POLYLINE
  5
59
  8
M2-0
  6
CONTINUOUS
 62
   254
 66
     1
 10
0.0
 20
0.0
 30
0.0
 70
     8
  0
VERTEX
  5
5A
  8
M2-0
  6
CONTINUOUS
 62
   254
 10
6997.7440953599989
 20
9442.9560815500008
 30
0.0
 70
    32
  0
VERTEX
  5
5B
  8
M2-0
  6
CONTINUOUS
 62
   254
 10
7012.2329827499989
 20
9446.8383672300006
 30
0.0
 70
    32
  0
VERTEX
  5
5C
  8
M2-0
  6
CONTINUOUS
 62
   254
 10
6997.7440953599989
 20
9450.7206529000014
 30
0.0
 70
    32
  0
SEQEND
  5
5D
  8
M2-0
 62
   254
  0
LINE
  5
5E
  8
M2-0
  6
CONTINUOUS
 62
   254
 10
6798.8996494200001
 20
9446.8383672300006
 30
0.0
 11
7012.2329827499989
 21
9446.8383672300006
 31
0.0
  0
LINE
  5
5F
  8
M2-0
  6
CONTINUOUS
 62
   254
 10
7012.2329827499989
 20
9436.9383672299973
 30
0.0
 11
7012.2329827499989
 21
9525.2252634800006
 31
0.0
  0
LINE
  5
60
  8
M2-0
  6
CONTINUOUS
 62
   254
 10
6798.8996494200001
 20
9436.9383672299973
 30
0.0
 11
6798.8996494200001
 21
9525.2252634800006
 31
0.0
  0
POLYLINE
  5
61
  8
M2-0
  6
CONTINUOUS
 62
   254
 66
     1
 10
0.0
 20
0.0
 30
0.0
 70
     8
  0
VERTEX
  5
62
  8
M2-0
  6
CONTINUOUS
 62
   254
 10
7019.81708101
 20
9673.9028097400005
 30
0.0
 70
    32
  0
VERTEX
  5
63
  8
M2-0
  6
CONTINUOUS
 62
   254
 10
7034.8031314099999
 20
9674.5495658100026
 30
0.0
 70
    32
  0
VERTEX
  5
64
  8
M2-0
  6
CONTINUOUS
 62
   254
 10
7021.5014530300014
 20
9681.4824838299992
 30
0.0
 70
    32
  0
SEQEND
  5
65
  8
M2-0
 62
   254
  0
POLYLINE
  5
66
  8
M2-0
  6
CONTINUOUS
 62
   254
 66
     1
 10
0.0
 20
0.0
 30
0.0
 70
     8
  0
VERTEX
  5
67
  8
M2-0
  6
CONTINUOUS
 62
   254
 10
7055.6463041699999
 20
9673.8947391300026
 30
0.0
 70
    32
  0
VERTEX
  5
68
  8
M2-0
  6
CONTINUOUS
 62
   254
 10
7040.6602537699991
 20
9673.2479830600005
 30
0.0
 70
    32
  0
VERTEX
  5
69
  8
M2-0
  6
CONTINUOUS
 62
   254
 10
7053.9619321500013
 20
9666.3150650499992
 30
0.0
 70
    32
  0
SEQEND
  5
6A
  8
M2-0
 62
   254
  0
LINE
  5
6B
  8
M2-0
  6
CONTINUOUS
 62
   254
 10
7005.517519609999
 20
9681.0574795400007
 30
0.0
 11
7101.1223254200004
 21
9659.8119671400018
 31
0.0
  0
POLYLINE
  5
6C
  8
M2-0
  6
CONTINUOUS
 62
   254
 66
     1
 10
0.0
 20
0.0
 30
0.0
 70
     8
  0
VERTEX
  5
6D
  8
M2-0
  6
CONTINUOUS
 62
   254
 10
6817.7287576099998
 20
9572.9041963899999
 30
0.0
 70
    32
  0
VERTEX
  5
6E
  8
M2-0
  6
CONTINUOUS
 62
   254
 10
6812.4028511200013
 20
9558.8815461400027
 30
0.0
 70
    32
  0
VERTEX
  5
6F
  8
M2-0
  6
CONTINUOUS
 62
   254
 10
6824.0265465599996
 20
9568.3625642400002
 30
0.0
 70
    32
  0
SEQEND
  5
70
  8
M2-0
 62
   254
  0
LINE
  5
71
  8
M2-0
  6
CONTINUOUS
 62
   254
 10
6886.2876006400002
 20
9661.3360259900019
 30
0.0
 11
6812.4028511200013
 21
9558.8815461400027
 31
0.0
  0
POLYLINE
  5
72
  8
M2-0
  6
CONTINUOUS
 62
   254
 66
     1
 10
0.0
 20
0.0
 30
0.0
 70
     8
  0
VERTEX
  5
73
  8
M2-0
  6
CONTINUOUS
 62
   254
 10
6760.0552034800003
 20
9891.9597337100004
 30
0.0
 70
    32
  0
VERTEX
  5
74
  8
M2-0
  6
CONTINUOUS
 62
   254
 10
6745.5663160900003
 20
9888.0774480300006
 30
0.0
 70
    32
  0
VERTEX
  5
75
  8
M2-0
  6
CONTINUOUS
 62
   254
 10
6760.0552034800003
 20
9884.1951623500008
 30
0.0
 70
    32
  0
SEQEND
  5
76
  8
M2-0
 62
   254
  0
POLYLINE
  5
77
  8
M2-0
  6
CONTINUOUS
 62
   254
 66
     1
 10
0.0
 20
0.0
 30
0.0
 70
     8
  0
VERTEX
  5
78
  8
M2-0
  6
CONTINUOUS
 62
   254
 10
7051.0774286899996
 20
9884.1951623500008
 30
0.0
 70
    32
  0
VERTEX
  5
79
  8
M2-0
  6
CONTINUOUS
 62
   254
 10
7065.5663160900003
 20
9888.0774480300006
 30
0.0
 70
    32
  0
VERTEX
  5
7A
  8
M2-0
  6
CONTINUOUS
 62
   254
 10
7051.0774286899996
 20
9891.9597337100004
 30
0.0
 70
    32
  0
SEQEND
  5
7B
  8
M2-0
 62
   254
  0
LINE
  5
7C
  8
M2-0
  6
CONTINUOUS
 62
   254
 10
6745.5663160900003
 20
9888.0774480300006
 30
0.0
 11
7065.5663160900003
 21
9888.0774480300006
 31
0.0
  0
LINE
  5
7D
  8
M2-0
  6
CONTINUOUS
 62
   254
 10
7065.5663160900003
 20
9897.9774480300002
 30
0.0
 11
7065.5663160900003
 21
9805.4252634799996
 31
0.0
  0
LINE
  5
7E
  8
M2-0
  6
CONTINUOUS
 62
   254
 10
6745.5663160900003
 20
9897.9774480300002
 30
0.0
 11
6745.5663160900003
 21
9805.4252634799996
 31
0.0
  0
LINE
  5
7F
  8
M2-0
  6
CONTINUOUS
 62
   254
 10
6478.0662996399997
 20
9355.6818982099994
 30
0.0
 11
6478.0662996399997
 21
9955.6819010700001
 31
0.0
  0
POINT
  5
80
  8
M2-0
  6
CONTINUOUS
 62
   254
 10
6463.066299170001
 20
9340.6818981699998
 30
0.0
  0
LINE
  5
81
  8
M2-0
  6
CONTINUOUS
 62
   254
 10
6478.0662996399997
 20
9955.6819010700001
 30
0.0
 11
7333.0663325399992
 21
9955.6819010700001
 31
0.0
  0
LINE
  5
82
  8
M2-0
  6
CONTINUOUS
 62
   254
 10
7333.0663325399992
 20
9355.6818982099994
 30
0.0
 11
7333.0663325399992
 21
9955.6819010700001
 31
0.0
  0
LINE
  5
83
  8
M2-0
  6
CONTINUOUS
 62
   254
 10
6478.0662996399997
 20
9355.6818982099994
 30
0.0
 11
7333.0663325399992
 21
9355.6818982099994
 31
0.0
  0
ENDSEC
  0
EOF
